Korn - Freak On A Leash Chords & Tabs

 

Freak On A Leash Chords & Tabs

Korn Chords & Tabs

Version: 3 Type: Tab 0 ratings
1 star 2 stars 3 stars 4 stars 5 stars
comments

Freak On A Leash Tab

Artist: KoRn
Album: Follow the Leader
Song: Freak on a Leash
Tabbed by: Colina uv Lithium tabs
Email: colina99@home.com or Lithium_tabZ@hotmail.com

Alright here's freak on a leash, in STANDARD tunning i know 
they tune down a whole step, but honestly? its not fun tunning
Down... too much work to get it back up... so here's Freak on
a leash, so I should prolly shut up now
[ Tab from: http://www.guitartabs.cc/tabs/k/korn/freak_on_a_leash_tab_ver_3.html ]
Riff 1
E:----------17-------------------------------------------
B:----15--------16---------------------------------------
G:-------------------------------------------------------
D:-------------------------------------------------------
A:-------------------------------------------------------
E:-------------------------------------------------------
B:-------------------------------------------------------
Riff 2
E:----10----17-------------------------------------------
B:---8----------16---------------------------------------
G:--8----------------------------------------------------
D:-------------------------------------------------------
A:-------------------------------------------------------
E:-------------------------------------------------------
B:-------------------------------------------------------
Riff 3
E:-------------------------------------------------------
B:-------------------------------------------------------
G:-------------------------------------------------------
D:-------------------------------------------------------
A:-------------------------------------------------------
E:--2-3-2--2---2---2-------------------------------------
B:--------3------3---3-4---------------------------------
Riff 4
E:-------------------------------------------------------
B:-------------------------------------------------------
G:-------------------------------------------------------
D:------------------6-6-6-7-7----------------------------
A:--7-7-7-7-7-7-7-7-7-7-7-8-6----------------------------
E:--5-5-5-5-5-5-5-5--------------------------------------
B:-------------------------------------------------------
Riff 5
E:---8-8-8-8-7-8-7----8-8-8-8(last note vibrato)---------
B:-------------------------------------------------------
G:-------------------------------------------------------
D:-------------------------------------------------------
A:-------------------------------------------------------
E:-------------------------------------------------------
B:-------------------------------------------------------
Riff 6
E:-------------------------------------------------------
B:-------------------------------------------------------
G:-------------------------------------------------------
D:-------------------------------------------------------
A:-------------------------------------------------------
E:-2-3-4-5-----------------------------------------------
B:-0-1-2-3-----------------------------------------------
Order:
Riff1 x1
Riff2 xLots
Riff3 x4
Riff4 x4
Riff2 xlots
Riff3 x4
Riff4 x4
Riff5 xLots
Riff6 xLots
Riff4 xLots
Any Questions/Concerns/Comments/Threats/Marrage proposals email me 
at the Addy's above....

Comments