Korn - Freak On A Leash Chords & Tabs

 

Freak On A Leash Chords & Tabs

Korn Chords & Tabs

Version: 18 Type: Tab 0 ratings
1 star 2 stars 3 stars 4 stars 5 stars
comments

Freak On A Leash Tab

   
Band- Korn
Song- Freak On A Leash
Album- Follow The Leader

Gtr I (A D G C F A D) - 'Head'
Gtr II (A D G C F A D) - 'Head 2'
Gtr III (A D G C F A D) - 'Munky'

 Intro
  Q=100
         N.C.(E5)        (F5)
 1/16   4/4
  Gtr III
   S       H.       Q     W
|----||------------19--|----------------------------------|
|----||---17-----------|-18-------------------------------|
|----||o---------------|----------------------------------|
|----||----------------|----------------------------------|
|----||o---------------|----------------------------------|
|----||----------------|----------------------------------|
|----||----------------|----------------------------------|
|
| Gtrs I, II
|                         <
|                             ~~~~~~~~~~~~~~~~~ ~~~    ~~
|  S      +H.       Q     e.  s  +E   +e   +S   e.     Q
|-24-||--(24)----------|-19--19-(19)-(19)-(19)-19---------|
|----||----------------|------------------------------22--|
|----||o---------------|---------------------------22-----|
|----||----------------|----------------------------------|
|----||o---------------|----------------------------------|
|----||----------------|----------------------------------|
|----||----------------|----------------------------------|
                          H                 E       E  Q


  (E5)           (F5)
   H.       Q     W
|----------19--|---------------------------------------||
|-17-----------|-18------------------------------------||
|--------------|--------------------------------------o||
|--------------|---------------------------------------||
|--------------|--------------------------------------o||
|--------------|---------------------------------------||
|--------------|---------------------------------------||
|
|                 <
|                     ~~~~~~~~~~~~~~~~~ ~~~
|  H.       Q     E.  s  +E   +E   +S   E.     Q
|-24-----------|-19--19-(19)-(19)-(19)-19--------(24)--||
|--------------|------------------------------22-------||
|--------------|---------------------------22---------o||
|--------------|---------------------------------------||
|--------------|--------------------------------------o||
|--------------|---------------------------------------||
|--------------|---------------------------------------||
                  H                 E       E  E   E


   1st Verse
    (E5)           (E5)               (E5)            (F5)
     H.       Q     W                   H.       Q     W
||-----------19--|------------------|-----------19--|------------------||
||--17-----------|-18---------------|--17-----------|-18---------------||
||o--------------|------------------|---------------|-----------------o||
||---------------|------------------|---------------|------------------||
||o--------------|------------------|---------------|-----------------o||
||---------------|------------------|---------------|------------------||
||---------------|------------------|---------------|------------------||
|
|    H.       Q     H    E  E  E  E    +H.       Q     H    E  E  Q
||--24-----------|---------------24-|-(24)----------|------------------||
||---------------|------------22----|---------------|------------22----||
||o--------------|---------22-------|---------------|---------22------o||
||---------------|------------------|---------------|------------------||
||o--------------|------------------|---------------|-----------------o||
||---------------|------------------|---------------|------------------||
||---------------|------------------|---------------|------------------||


 2nd Verse
  $
  (E5)           (F5)             (E5)           (F5)
   H.       Q     W                H.       Q     W
|----------19--|----------------|----------19--|----------------|
|-17-----------|-18-------------|-17-----------|-18-------------|
|--------------|----------------|--------------|----------------|
|--------------|----------------|--------------|----------------|
|--------------|----------------|--------------|----------------|
|--------------|----------------|--------------|----------------|
|--------------|----------------|--------------|----------------|
|
|  H.       Q     H    E  E  Q     H.       Q     H    E  Q   E
|-24-----------|----------------|-24-----------|----------------|
|--------------|------------22--|--------------|-------------22-|
|--------------|---------22-----|--------------|---------22-----|
|--------------|----------------|--------------|----------------|
|--------------|----------------|--------------|----------------|
|--------------|----------------|--------------|----------------|
|--------------|----------------|--------------|----------------|


  (E5)                  (F5)               (E5)            (F5)
    H.             Q     W                   H.       Q     W
|-----------------19--|------------------|-----------19--|------------------||
|--17-----------------|-18---------------|--17-----------|-18---------------||
|---------------------|------------------|---------------|------------------||
|---------------------|------------------|---------------|------------------||
|---------------------|------------------|---------------|------------------||
|---------------------|------------------|---------------|------------------||
|---------------------|------------------|---------------|------------------||
|
|  +E   E  +H.           H    E  E  E  E    +H.       Q     H    E  E  E  E
|------24-(24)--------|---------------24-|-(24)----------|---------------24-||
|-(22)----------------|------------22----|---------------|------------22----||
|---------------------|---------22-------|---------------|---------22-------||
|---------------------|------------------|---------------|------------------||
|---------------------|------------------|---------------|------------------||
|---------------------|------------------|---------------|------------------||
|---------------------|------------------|---------------|------------------||


   Pre-Chorus
    Q=108
    G# A  G#   E            G# A  C    E       F
     S  S  E E  E  +H        S  S  E E  E  +E   E Q   3x
||------------------------|---------------------------||
||------------------------|---------------------------||
||o-----------------------|-----------------------0--o||
||---6s=7s=6----6--(6)----|--6s=7s=5----6--(6)--3-----||
||o-------------7--(7)----|-------------7--(7)-------o||
||---4s=5s=4-0------------|--4s=5s=4-0----------1-----||
||------------------------|---------------------------||
|
|   Gtr I
|    S  S  E E  E  +H        S  S  E E  E  +E   E Q   3x
||------------------------|---------------------------||
||------------------------|---------------------------||
||o-13s14s13---13-(13)----|-13s14s13---13-(13)-------o||
||------------------------|--------------------15-0---||
||o-11s12s11---11-(11)----|-11s12s11---11-(11)-------o||
||-----------0------------|----------0---------13-----||
||------------------------|---------------------------||

[ Tab from: http://www.guitartabs.cc/tabs/k/korn/freak_on_a_leash_tab_ver_18.html ]
  G# A  G#   E
   S  S  E E  E  +H        +W
|-----------------------|---------|
|-----------------------|---------|
|-----------------------|---------|
|--6s=7s=6----6--(6)----|--(6)----|
|-------------7--(7)----|--(7)----|
|--4s=5s=4-0------------|---------|
|-----------------------|---------|
|
|  S  S  E E  E  +H        +W
|-----------------------|---------|
|-----------------------|---------|
|-13s14s13---13-(13)----|-(13)----|
|-----------------------|---------|
|-11s12s11---11-(11)----|-(11)----|
|----------0------------|---------|
|-----------------------|---------|


   Ist and 2nd Choruses
                     TD.S. al Coda
    Badd11     F#   G  Amadd9+5/F
    Gtrs I, III
    W          Q.   Q  Q.    4x W
||--0--------|---------------||-------|
||--4--------|------0--0-----||-------|
||o-4--------|-3----4--2----o||-------|
||--4--------|-4----5--3-----||-------|
||o-2--------|-4----5--3----o||-------|
||-----------|-2----3--1-----||-------|
||--0--------|---------------||-------|


            Interlude
  &
  W          Wx4
|----------|--------|
|----------|--------|
|----------|--------|
|----------|--------|
|----------|--------|
|----------|--------|
|----------|--------|


    C#add9
    Gtr III
    E.    S S  S E S  S S   S S  S E
||-------10---10-----10----10-9-10-9-|
||-----------------------------------|
||o----------------------------------|
||-----------------------------------|
||o----------------------------------|
||-----------------------------------|
||-----------------------------------|
|
|   Gtr I
|   E  E    E    E E    Q.
||-----------------------------------|
||-----------------------------------|
||o----------------------------------|
||-----------------------------------|
||o----------------------------------|
||--9--9---------9-9-----------------|
||-----------------------------------|


 1.,2.,3.                           4.
  E.    S S  S E S  S S   S  Q   4x E.    S S  S E S  S S  S E E
|------10---10-----10----10-10---||------10---10-----10---10-9----||
|--------------------------------||-------------------------------||
|-------------------------------o||-------------------------------||
|--------------------------------||-------------------------------||
|-------------------------------o||-------------------------------||
|--------------------------------||-------------------------------||
|--------------------------------||-------------------------------||
|
| E  E    E    E E    Q.         4x E  E    E    E E    E    E E
|--------------------------------||-------------------------------||
|--------------------------------||-------------------------------||
|-------------------------------o||-------------------------------||
|--------------------------------||-------------------------------||
|-------------------------------o||-------------------------------||
|-9--9---------9-9---------------||-9--9---------9-9---------9----||
|--------------------------------||-------------------------------||


   Bridge
    C#5  D5 Eb5E5  C#5  D5 Eb5E5  C#5  D5 Eb5E5  C#5  D5 C#5C5
    Gtrs I, III
    Q.   Q  Q  E   Q.   Q  Q  E   Q.   Q  Q  E   Q.   Q  Q  E   3x
||---------------|--------------|--------------|----------------||
||---------------|--------------|--------------|----------------||
||o--------------|--------------|--------------|---------------o||
||---------------|--------------|--------------|----------------||
||o-4----5--6--7-|-4----5--6--7-|-4----5--6--7-|-4----5--4--3--o||
||--4----5--6--7-|-4----5--6--7-|-4----5--6--7-|-4----5--4--3---||
||--2----3--4--5-|-2----3--4--5-|-2----3--4--5-|-2----3--2--1---||


   3rd Chorus
    B5                 F#   G  Amadd9+5/F
    E E E E S S Q  E   Q.   Q  Q.    4x
||-------------------|---------------||
||-------------------|------0--0-----||
||o------------------|-3----4--2----o||
||--4-4---4---4-4----|-4----5--3-----||
||o-2-2---2---2-2----|-4----5--3----o||
||-------------------|-2----3--1-----||
||--0-0---0---0-0----|---------------||


   Outro
    B5                           F#5  G5 F5       B5
    Gtr I
    Q   +E   E  +Q.        +E    Q.   Q  Q.    3x Q   +E   E  +Q.        E
||--7---(7)s19-(19)-------(19)s|=7----8--5-----||-7---(7)s19-(19)-------19s=|
||-----------------------------|---------------||---------------------------|
||o----------------------------|--------------o||---------------------------|
||-----------------------------|---------------||---------------------------|
||o----------------------------|--------------o||---------------------------|
||-----------------------------|---------------||---------------------------|
||-----------------------------|---------------||---------------------------|
|
|   Gtr III
|   E E  E   E   S  S Q.         Q.   Q  Q.    3x E E  E   E   S  S Q.
||-----------------------------|---------------||---------------------------|
||-----------------------------|---------------||---------------------------|
||o----------------------------|--------------o||---------------------------|
||--4-4------4------4-4--------|-4----5--3-----||-4-4------4------4-4-------|
||o-2-2------2------2-2--------|-4----5--3----o||-2-2------2------2-2-------|
||-----------------------------|-2----3--1-----||---------------------------|
||--0-0------0------0-0--------|---------------||-0-0------0------0-0-------|


  F#5  G5  G11/F
  Q.   Q.     Q    +W           +W            W
|-7----8------5--|-(5)--------|-(5)--------|--------------*|
|----------------|------------|------------|--------------*|
|----------------|------------|------------|--------------*|
|----------------|------------|------------|--------------*|
|----------------|------------|------------|--------------*|
|----------------|------------|------------|--------------*|
|----------------|------------|------------|--------------*|
|
| Q.   Q   Q.      +W           +W           +Q   Q  H
|----------------|------------|------------|--------------*|
|----------0-----|-(0)--------|-(0)--------|-(0)----------*|
|----------0-----|-(0)--------|-(0)--------|-(0)----------*|
|-4----5---3-----|-(3)--------|-(3)--------|-(3)----------*|
|-4----5---3-----|-(3)--------|-(3)--------|-(3)----------*|
|-2----3---1-----|-(1)--------|-(1)--------|-(1)----------*|
|----------------|------------|------------|--------------*|


Duration Legend
---------------
W - whole; H - half; Q - quarter; E - 8th; S - 16th; T - 32nd; X - 64th; a - acciaccatura
+ - note tied to previous; . - note dotted; .. - note double dotted
Uncapitalized letters represent notes that are staccato (1/2 duration)
Irregular groupings are notated above the duration line
Duration letters will always appear directly above the note/fret number it represents the
duration for.  Duration letters with no fret number below them represent rests.  Multi-
bar rests are notated in the form Wxn, where n is the number of bars to rest for.  Low
melody durations appear below the staff

Tablature Legend
----------------
 h   - hammer-on
 p   - pull-off
 b   - bend
 pb  - pre-bend
 r   - bend release (if no number after the r, then release immediately)
 /\  - slide into or out of (from/to "nowhere")
 s   - legato slide
 S   - shift slide
  - natural harmonic
[n]  - artificial harmonic
n(n) - tapped harmonic
 ~   - vibrato
 tr  - trill
 T   - tap
 TP  - trem. picking
 PM  - palm muting
\n/  - tremolo bar dip; n = amount to dip
 \n  - tremolo bar down
 n/  - tremolo bar up
/n\  - tremolo bar inverted dip
 =   - hold bend; also acts as connecting device for hammers/pulls
 <>  - volume swell (louder/softer)
 x   - on rhythm slash represents muted slash
 o   - on rhythm slash represents single note slash

Misc Legend
-----------
 |  - bar
||  - double bar
||o - repeat start
o|| - repeat end
*|  - double bar (ending)
 :  - bar (freetime)
 $  - Segno
 &  - Coda
Tempo markers -  = BPM(8/16=s8/s16), where s8 = swing 8ths, s16 = swing 16ths


***************************************************************************************
* Generated using Power Tab Editor by Brad Larsen - http://powertab.guitarnetwork.org *
***************************************************************************************
Comments