Korn - Freak On A Leash Chords & Tabs

 

Freak On A Leash Chords & Tabs

Korn Chords & Tabs

Version: 16 Type: Tab 0 ratings
1 star 2 stars 3 stars 4 stars 5 stars
comments

Freak On A Leash Tab

   
-----------------------------------------------------------------------------
			 FREAK ON A LEASH - Korn
-----------------------------------------------------------------------------
Tabbed by: lyingfromyou118 (Anthony)
Email: anthony11888@hotmail.com

Tuning: d
	A
	F
	C
	G
	d

Can be played on 1 guitar here, but easier on 2

Intro & Verse

Guitar 1
d|----------------19---------|
A|-------------17----18------|
F|---------------------------|
C|---------------------------|
G|---------------------------|
D|---------------------------|

Guitar 2
d|--------12--------------|
A|-----10-----------------|
F|--10--------------------|
C|------------------------|
G|------------------------|
D|------------------------|

Pre-chorus:
[ Tab from: http://www.guitartabs.cc/tabs/k/korn/freak_on_a_leash_tab_ver_16.html ]
(Switch on Distortion)
d|--------------------------------------------------------------------------|
A|--------------------------------------------------------------------------|
F|--------------13/14\13------13-----13/14\13-----13-----10-----------------|
C|---------------x-------------x------x------------x------x-----------------|
G|--------------11/12\11------11-----11/12\11-----11------8-----------------|
D|------------------------0--------------------0----------------------------|

Chorus:

(Distortion)
d|--------------------------------------------------------------------------|
A|--4--4--4--4--4--4--4--4--------------------------------------------------|
F|--4--4--4--4--4--4--4--4--3--3--3--4----4---------------------------------|
C|--4--4--4--4--4--4--4--4--4--4--4--5----3---------------------------------|
G|--------------------------------------------------------------------------|
D|--------------------------------------------------------------------------|

Bridge:

Let these ring for a little
d|--------------------------------------------------------------------------|
A|--------------------------------------------------------------------------|
F|--------------------------------------------------------------------------|
C|--4--5--6--7--4--5--6--7--4--5--6--7--4--5--4--3--------------------------|
G|--4--5--6--7--4--5--6--7--4--5--6--7--4--5--4--3--------------------------|
D|--2--3--4--5--2--3--4--5--2--3--4--5--2--3--2--1--------------------------|


Any questions can be e-mailed to me or i.m. me at lyingfromyou118
Comments