Korn - Freak On A Leash Chords & Tabs

 

Freak On A Leash Chords & Tabs

Korn Chords & Tabs

Version: 14 Type: Tab 0 ratings
1 star 2 stars 3 stars 4 stars 5 stars
comments

Freak On A Leash Tab

munkyheadojo

artist:korn
album:follow the leader
song:freak on a leash

I play a six string in EADGBE ,but i can play 
any korn song i want and its always correct.

Notation;
~ = let ring
/ = slide

Intro;
|----17------10-|---10~-17---|
|------16---8---|--8------16-|
|-15~------8----|-8----------|
|---------------|------------|
|---------------|------------|
|---------------|------------|
[ Tab from: http://www.guitartabs.cc/tabs/k/korn/freak_on_a_leash_tab_ver_14.html ]
pre-chourus
|-------------------
|-------------------
|-------------------
|-9/10-9-9/10-9-9-6-
|-------0------0----
|-------------------

chourus
|--------------
|--------------
|--------------
|-777777755566-
|-777777766675-
|-5555555------

voice riff
|---88--887-
|-----------
|-----------
|-----------
|-----------
|-99--99----

pre outro riff
|--------------------
|--------------------
|--------------------
|4567-4567-4567-4567-
|4567-4567-4567-4567-
|2345-2345-2345-2345-

Well, thats what i play and it sounds
right to me.
Comments