Korn - Freak On A Leash Chords & Tabs

 

Freak On A Leash Chords & Tabs

Korn Chords & Tabs

Version: 10 Type: Tab 0 ratings
1 star 2 stars 3 stars 4 stars 5 stars
comments

Freak On A Leash Tab

   
Artist: Korn
Song: Freak on a leash
Albun: Follow The Leaders
By: Sepultura5000@Hotmail.com

==========
| Tuning |
==========

Seven String guitar tuned down one whole step.
                
           Standard       To Play This Song
7 string      B                   A
6 string      E                   D
5 string      A                   G
4 string      D                   C
3 string      G                   F
2 string      B                   A
1 string      E                   D

============
| Notation |
============

/     =     Slide Up
\     =     Slide Down
P.M.  =     Palm Mute
x     =     Stop sound (Not a mute in this tab)
h     =     Hammer On
p     =     Pull Off
                
==================================
| Intro / Verse (Without Drums)* |
==================================

Riff A
      Munky           Head
D||--------19------||---------24----||
A||-17--------18---||-----22--------||
F||----------------||-21------------||
C||----------------||---------------||
G||----------------||---------------||
D||----------------||---------------||
A||----------------||---------------||

*You play this during the first verse BEFORE the drums come in. Also, when Munky hits
the High A 18th fret note, Head starts his little part of this riff.  Then, when Head hits 
the High D 24TH fret note, Munky starts his part of this riff.

=======================
| Verse (With Drums)* |
=======================

Riff B
   Munky             Head
D||---------18------||---------24-||
A||-17--------*19---||-----22-----||
F||-----------------||-21---------||
C||-----------------||------------||
G||-----------------||------------||
D||-----------------||------------||
A||-----------------||------------||
   *-To get this note to
     sound like Munky does
     use a Flanger set to
     vibrato (I just turn all
     the way clock-wise.)

*These Riffs are only done when David plays the verse with the band

=============
| Pre Chorus |
=============

Riff C
      Munky & Head
D||----------------------------------------||
A||----------------------------------------||
F||-13/-14\-13---13---13/-14\-13---13--10--||
C||----------------------------------------||
G||-11/-12\-11---11---11/-12\-11---11---8--||
D||------------0-----------------0---------||
A||----------------------------------------||

Riff D
      Munky & Head
D||-------------------||
A||-------------------||
F||-13/-14\-13---13---||
C||-------------------||
G||-11/-12\-11---11---||
D||------------0------||
A||-------------------||

==========
| Chorus |
==========

Riff E
      Munky & Head
D||------------------------------||
A||------------------------------||
F||------------------------------||
C||-9-9-9-9-9-9-9-9--------------||
G||-9-9-9-9-9-9-9-9-9-9-9-10--8--||
D||-7-7-7-7-7-7-7-7-9-9-9-10--8--||
A||-----------------7-7-7--8--6--||

==========
| Bridge |
==========

Riff F
      Munky & Head
D||----------10-10------------10-10p9h10p9--||
A||-----------------------------------------||
F||-----------------------------------------||
C||-----------------------------------------||
G||-----------------------------------------||
D||----9--9-----------9--9------------------||
A||-----------------------------------------||
[ Tab from: http://www.guitartabs.cc/tabs/k/korn/freak_on_a_leash_tab_ver_10.html ]
Riff G
      Munky or Head (One keeps playing Riff F)
D||----------10-10------------10-10p9h10p9--||
A||-----------------------------------------||
F||-----------------------------------------||
C||-----------------------------------------||
G||-----------------------------------------||
D||----9--9-----------9--9------------------||
A||-----------------------------------------||
                            Play these notes
                            with the Flanger
                            the same way you
                            used it in Riff B.

Riff H
      Munky & Head
D||----------------||
A||----------------||
F||----------------||
C||----------------||
G||-4-5-6-7--------||
D||-4-5-6-7--------||
A||-2-3-4-5--------||

Riff I
      Munky & Head
D||-------------||
A||-------------||
F||-------------||
C||-------------||
G||-4-5-4-3-----||
D||-4-5-4-3-----||
A||-2-3-2-1-----||

===============
| Last Chorus |
===============

Riff J
      Munky & Head
D||---------------------------||
A||---------------------------||
F||---------------------------||
C||-9-9---9---9-9-9-9---------||
G||-9-9---9---9-9-9-9-9-10-8--||
D||-7-7---7---7-7-7-7-9-10-8--||
A||-------------------7--8-6--||

Riff K
      Munky or Head
D||--7---------/19----\7--|---------8-----5--||
A||-----------------------|------------------||
F||-----------------------|------------------||
C||-----------------------|------------------||
G||-----------------------|------------------||
D||-----------------------|------------------||
A||-----------------------|------------------||

==========================
| Song Order with Lyrics |
==========================

Intro: Riff A X5

With: Riff A X2
Something takes a part of me.
Something lost and never seen.

With Riff B X7
Everytime I start to believe,
Something's raped and taken from me... from me
Life's got to always be messing with me (You wanna see the light)
Can't they chill and let me be free     (So do I)
Can't I take away all this pain         (You wanna see the light
I try to every night, all in vain... in vain

With: Riff C X3
Sometimes I cannot take this place.
Sometimes it's my life I can't taste.
Sometimes I cannot feel my face.

With: Riff D X1
You'll never see fall from grace

With: Riff E X4
Something takes a part of me.
You and I were meant to be.
A cheap fuck for me to lay
Something takes a

No guitar here: part of me.

With: Riff B X4
Feeling like a freak on a leash.     (You wanna see the light)
Feeling like I have no release.      (So do I)
How many times have I felt diseased? (You wanna see the light)
Nothing in my life is free... is free

With: Riff C X4
Sometimes I cannot take this place.
Sometimes it's my life I can't taste.
Sometimes I cannot feel my face.

With Riff D X1
You'll never see fall from grace

With: Riff E X4
Something takes a part of me.
You and I were meant to be.
A cheap fuck for me to lay
Something takes a

No Guitar here: part of me.

No Guitar Here:
Boom na da mmm dum na ema
Da boom na da mmm dum na ema
Da boom na da mmm dum na ema
Da boom na da mmm dum na ema

With: Riff F X1
Da boom na da mmm dum na ema

With: Riff G X1
Da boom na da mmm dum na ema

With: Riff F X1
Da boom na da mmm dum na ema

With: Riff G X1
Da boom na da mmm dum na ema

With: Riff F X1
Da boom na da mmm dum na ema

With: Riff G X1
Da boom na da mmm dum na ema

With: Riff F X1
Da boom na da mmm dum na ema

With: Riff G X1
Da boom na da mmm dum na ema

With: No guitar: GO!

Riff H X3
Riff I X1

With: Riff H X3
So...    fight! something on the...
Fight... some things they fight
So...    something on the...

With: Riff I X1
Fight... some things they fight

With: Riff H X3
Fight... something of the
No...    some things they fight
Fight... something of the...

With: Riff I X1
Fight... some things they fight

With: Riff J X4
Something takes a part of me.
You and I were meant to be.
A cheap fuck for me to lay
Something takes a part of me.

With: Riff K (Space Noise) and Riff J X4
Part of me...
Part of me...
Part of me...
Oh...
Comments