Korn - Freak On A Leash Chords & Tabs

 

Freak On A Leash Chords & Tabs

Korn Chords & Tabs

Version: 1 Type: Tab 0 ratings
1 star 2 stars 3 stars 4 stars 5 stars
comments

Freak On A Leash Tab

#----------------------------------PLEASE NOTE---------------------------------#
#This file is the author's own work and represents their interpretation of the #
#song. You may only use this file for private study, scholarship, or research. #
#------------------------------------------------------------------------------#


Song: Freak on a Leash
Band: KoRn
Album: Follow the Leader
Tabbed by: Paul De Jaegher (pdj91@hotmail.com)
Date: February 5, 1999 

Tuning: Drop D for a six string guitar

[ Tab from: http://www.guitartabs.cc/tabs/k/korn/freak_on_a_leash_tab.html ]
   Intro & Verse
                                                                        
E|-----------------17---------|
B|--15---------------------16-|
G|----------------------------|
D|----------------------------|
A|----------------------------|
D|----------------------------|
                                                                        
   Pre-Chorus
                                                                        
E|--------------------------|
B|--------------------------|
G|--11/12\11-------11-------|
D|--------------------------|
A|---9/10\-9--------9-------|
D|---0----------0-----------|
                                                                        
   Chorus
                                                                        
E|--------------------------|-----------------------|
B|--------------------------|-----------------------|
G|--2--2--2--2--2--2--2--2--|-----------------------|
D|--2--2--2--2--2--2--2--2--|--2--2--2--3-----1-----|
A|--0--0--0--0--0--0--0--0--|--2--2--2--3-----1-----|
D|--------------------------|--2--2--2--3-----1-----|
                                                                        
   Interlude
                                                                        
E|---------------------------|
B|---------------------------|
G|---------------------------|
D|---------------------------|
A|--2---------3-----4-----5--|
D|--4---------5-----6-----7--|
                                                                        

For more KoRn tabs go to www.angelfire.com/bc/paulsworld

Comments