Korn - Freak On A Leash Riffs Chords & Tabs

 

Freak On A Leash Riffs Chords & Tabs

Korn Chords & Tabs

Version: 1 Type: Tab 0 ratings
1 star 2 stars 3 stars 4 stars 5 stars
comments

Freak On A Leash Riffs Tab

Artist: KoRn
Album: Follow the Leader
Song: Freak on a Leash
Tabbed by: Colina uv Lithium tabs
Email: colina99@home.com or Lithium_tabZ@hotmail.com

Alright here's freak on a leash, in STANDARD tunning i know 
they tune down a whole step, but honestly? its not fun tunning
Down... too much work to get it back up... so here's Freak on
a leash, so I should prolly shut up now

Riff 1 HEAD
E:----------17-------------------------------------------
B:----15--------16---------------------------------------
G:-------------------------------------------------------
D:-------------------------------------------------------
A:-------------------------------------------------------
E:-------------------------------------------------------
B:-------------------------------------------------------
Riff 2 Munky
E:----10-------------------------------------------------
B:---8---------------------------------------------------
G:--8----------------------------------------------------
D:-------------------------------------------------------
A:-------------------------------------------------------
E:-------------------------------------------------------
B:-------------------------------------------------------
Riff 3 Head
E:-------------------------------------------------------
B:-------------------------------------------------------
G:-------------------------------------------------------
D:-------------------------------------------------------
A:----8-9-8----8--8-9-8----8-----------------------------
E:----------10----------10---11--------------------------
B:-------------------------------------------------------
Munky (pitches sound loco)
E:-------------------------------------------------------
B:-------------------------------------------------------
G:---------------------------8---------------------------
D:-------------------------------------------------------
A:-------------------------------------------------------
E:-------------------------------------------------------
B:-------------------------------------------------------
[ Tab from: http://www.guitartabs.cc/tabs/k/korn/freak_on_a_leash_riffs_tab.html ]
E:-------------------------------------------------------
B:-------------------------------------------------------
G:----7---------6-5--------------------------------------
D:-------------------------------------------------------
A:-------------------------------------------------------
E:-------------------------------------------------------
B:-------------------------------------------------------
Riff 4 Head and Munky
E:-------------------------------------------------------
B:-------------------------------------------------------
G:-------------------------------------------------------
D:------------------6-6-6-7-7----------------------------
A:--7-7-7-7-7-7-7-7-7-7-7-8-6----------------------------
E:--5-5-5-5-5-5-5-5--------------------------------------
B:-------------------------------------------------------
Riff 5 Munky
E:---8-8-8-8-7-8-7----8-8-8-8(last note vibrato)---------
B:-------------------------------------------------------
G:-------------------------------------------------------
D:-------------------------------------------------------
A:-------------------------------------------------------
E:-------------------------------------------------------
B:-------------------------------------------------------
Head
E:-------------------------------------------------------
B:-------------------------------------------------------
G:-------------------------------------------------------
D:-------------------------------------------------------
A:-------------------------------------------------------
E:--7-7---7-7---------7-7---7-7--------------------------
B:-------------------------------------------------------
Riff 6 Head and Munky
E:-------------------------------------------------------
B:-------------------------------------------------------
G:-------------------------------------------------------
D:-4-5-6-7-----------------------------------------------
A:-2-3-4-5-----------------------------------------------
E:-------------------------------------------------------
B:-------------------------------------------------------
Munky after 8 times of whatcha just did with Head
E:-------------------------------------------------------
B:-------------------------------------------------------
G:-1-----------------------------------------------------
D:-(1/2 step bend on the G#)-----------------------------
A:-------------------------------------------------------
E:-------------------------------------------------------
B:-------------------------------------------------------

Riff 4 for head on the outro:
E:-5-17-5-6-3--------------------------------------------
B:-------------------------------------------------------
G:-------------------------------------------------------
D:-------------------------------------------------------
A:-------------------------------------------------------
E:-------------------------------------------------------
B:-------------------------------------------------------
Order:
Riff 1 and 2- together until pre chorus
Riff 3 until Chorus
Riff 4
Riff 1 and 2
Riff 3
Riff 4
Riff 5
Riff 6
Riff 4 Head comes in When John first starts repeating Part 
of me


Comments