Korn - Falling Away From Me Chords & Tabs

 

Falling Away From Me Chords & Tabs

Korn Chords & Tabs

Version: 8 Type: Tab 0 ratings
1 star 2 stars 3 stars 4 stars 5 stars
comments

Falling Away From Me Tab

Author/Artist: KoRN
Title: Falling away from me
Album: Issues
Transcribed by: Todd Miller
Email: Miller25t@msn.com


       intro*
-10-13-12-8-5-12-|-10-13-12-8-5-12-7-|-10-13-12-8-5-12-|-10-13-12-8-5-12-7----
-----------------|-------------------|-----------------|----------------------
-----------------|-------------------|-----------------|----------------------
-----------------|-------------------|-----------------|----------------------
-----------------|-------------------|-----------------|----------------------
-----------------|-------------------|-----------------|----------------------
            

-x-xx-x-x-xx-x-xx-x-x-xx-x-|---------------------------------------
-x-xx-x-x-xx-x-xx-x-x-xx-x-|---------------------------------------
-x-xx-x-x-xx-x-xx-x-x-xx-x-|-----repeat this 8x--------------------
-7-14-7-7-14-7-14-7-7-14-7-|---------------------------------------
-7-14-7-7-14-7-14-7-7-14-7-|---------------------------------------
-5-12-5-5-12-5-12-5-5-12-5-|---------------------------------------
  This part is hard to play man, and was hard to tab.
It keeps up in a pattern similar to this.  You get the idea.                


Repeat the intro part right here.

            
-x-xx-x-x-xx-x-xx-x-x-xx-x-|---------------------------------------
-x-xx-x-x-xx-x-xx-x-x-xx-x-|---------------------------------------
-x-xx-x-x-xx-x-xx-x-x-xx-x-|-----repeat this 4x I think------------
-7-14-7-7-14-7-14-7-7-14-7-|---------------------------------------
-7-14-7-7-14-7-14-7-7-14-7-|---------------------------------------
-5-12-5-5-12-5-12-5-5-12-5-|---------------------------------------

Play the intro part again right here again.

[ Tab from: http://www.guitartabs.cc/tabs/k/korn/falling_away_from_me_tab_ver_8.html ]
-x-xx-xx-|-x-xx-xx-xx-x-|-x-xx-xx-xx-x-|-x-xx-xx-x-|-----------------
-x-xx-xx-|-x-xx-xx-xx-x-|-x-xx-xx-xx-x-|-x-xx-xx-x-|-----------------
-x-xx-xx-|-x-xx-xx-xx-x-|-x-xx-xx-xx-x-|-x-xx-xx-x-|-----------------
-7-14-10-|-7-14-10-10-9-|-7-14-10-10-9-|-7-14-10-9-|-----------------
-7-14-10-|-7-14-10-10-9-|-7-14-10-10-9-|-7-14-10-9-|-----------------
-5-12-8--|-5-12-8--8--7-|-5-12-8--8--7-|-5-12-8--7-|-----------------

 Repeat intro part again here two times.


Keep this part going on for a while. 
-x-xx-xx-|-x-xx-xx-xx-x-|-x-xx-xx-xx-x-|-x-xx-xx-x-x-|-----------------
-x-xx-xx-|-x-xx-xx-xx-x-|-x-xx-xx-xx-x-|-x-xx-xx-x-x-|-----------------
-x-xx-xx-|-x-xx-xx-xx-x-|-x-xx-xx-xx-x-|-x-xx-xx-x-x-|-----------------
-7-14-10-|-7-14-10-10-9-|-7-14-10-10-9-|-7-14-10-9-7-|-----------------
-7-14-10-|-7-14-10-10-9-|-7-14-10-10-9-|-7-14-10-9-7-|-----------------
-5-12-8--|-5-12-8--8--7-|-5-12-8--8--7-|-5-12-8--7-5-|-----------------                                  

Intro again.  Duh!


-x-xx-x-x-xx-x-xx-x-x-xx-x-|---------------------------------------
-x-xx-x-x-xx-x-xx-x-x-xx-x-|---------------------------------------
-x-xx-x-x-xx-x-xx-x-x-xx-x-|---8x----------------------------------
-7-14-7-7-14-7-14-7-7-14-7-|---------------------------------------
-7-14-7-7-14-7-14-7-7-14-7-|---------------------------------------
-5-12-5-5-12-5-12-5-5-12-5-|---------------------------------------                                           

 This part right here comes right after the above.  
It goes right into this part and sounds sweet.
-x-xx-xx-|-x-xx-xx-xx-x-|-x-xx-xx-xx-x-|-x-xx-xx-x-x-|-----------------
-x-xx-xx-|-x-xx-xx-xx-x-|-x-xx-xx-xx-x-|-x-xx-xx-x-x-|-----------------
-x-xx-xx-|-x-xx-xx-xx-x-|-x-xx-xx-xx-x-|-x-xx-xx-x-x-|--2x---------------
-7-14-10-|-7-14-10-10-9-|-7-14-10-10-9-|-7-14-10-9-7-|-----------------
-7-14-10-|-7-14-10-10-9-|-7-14-10-10-9-|-7-14-10-9-7-|-----------------
-5-12-8--|-5-12-8--8--7-|-5-12-8--8--7-|-5-12-8--7-5-|-----------------  


 Alright, that is all there is to it man.  Some of the parts are hard to 
 play.  I am human so I make mistakes, if you see a part I left out or 
 see a part I messed up on or something, let me know.  By the way this is 
 my first tab I've made.  Comments, questions, or anything else, just e-
 mail me at Miller25t@msn.com.  My AIM name is Bizkitblk182Korn, and my
 icq# is 27431846.  You can reach me there.    Later.

Comments