Korn - Falling Away From Me Chords & Tabs

 

Falling Away From Me Chords & Tabs

Korn Chords & Tabs

Version: 6 Type: Tab 0 ratings
1 star 2 stars 3 stars 4 stars 5 stars
comments

Falling Away From Me Tab

   
Song: Falling Away From me
   Artist: KoRn
   Album: Issues (1999)
   Tab By: John Dannar

   7 string guitar Arr. for 6 string
   Tuned (from low to high) ADGFAD 



   Intro: Repeat 1 time 
   D :----15--14-(14)---------|------14--14---------|
   A :17--------------15------|---------------------|
   F :--------------------16--|(16)-----------------|
   G :------------------------|---------------------|
   D :------------------------|---------------------|
   A :------------------------|---------------------|



   D :----15--14-(14)---------|------14---------------- 1|-----------------|
   A :17--------------15------|-----------14--(14)----- ||-----------------|
   F :--------------------16--|(16)--------------------*||9--------9---9---|
   G :------------------------|------------------------*||8--------8---8---|
   D :------------------------|------------------------ ||----7--7--------7|
   A :------------------------|------------------------ ||6---0--0-6---6--0|


   Verse: Play Twice 
   D :-------- 6|-----------|-------------|| ----15--14-(14)---------|
   A :-------- ||-----------|-------------|| 17--------------15------|
   F :--------*||9--------9-|--9----------||*--------------------16--|
   G :--------*||8--------8-|--8----------||*------------------------|
   D :--7---7- ||----7--7---|-----7--7----|| ------------------------|
   A :--0---0- ||6---0--0-6-|--6--0--0----|| ------------------------|



   D :------14--14---------15-|-14-(14)---------------14-|------------- 1|
   A :-----------------17-----|---------15---------------|--14--(14)--- ||
   F :(16)--------------------|-------------16--(16)-----|-------------*||
   G :------------------------|--------------------------|-------------*||
   D :------------------------|--------------------------|------------- ||
   A :------------------------|--------------------------|------------- ||
   n g. ... 

   --------- ---------------- ------------------| 
   D :---------|---------------- 2|-------------------|------|
   A :---------|---------------- ||-------------------|------|
   F :9--------|9---9-----------*||9--------9-----9---|------|
   G :8--------|8---8-----------*||8--------8-----8---|------|
   D :----7--7-|-------7--7---7- ||----7--7----------7|------|
   A :6---0--0-|6---6--0--0---0- ||6---0--0-6-----6--0|------|


   Chorus: Beating me down ...... (1:24,2:10,3:33) 
   D :--------------|----------------|---------------------|
   A :--------------|----------------|---------------------|
   F :--------------|----------------|---------------------|
   G :2-------9-----|--5-------3--3--|--2-------9--------5-|
   D :2-------9-----|--5-------3--3--|--2-------9--------5-|
   A :0-------7-----|--3-------1--1--|--0-------7--------3-|



   D :----------------|----------------|----------------|----------------|
   A :----------------|----------------|----------------|----------------|
   F :----------------|----------------|----------------|----------------|
   G :-------8--8----2|-------9-------5|-------3--3----2|-------9-------5|
   D :-------8--8----2|-------9-------5|-------3--3----2|-------9-------5|
   A :-------6--6----0|-------7-------3|-------1--1----0|-------7-------3|


   .......... Ground. 
   D :-------------------|-----15--14-(14)--------|-------14--14--------|
   A :-------------------|-17--------------15-----|---------------------|
   F :-------------------|---------------------16-|-(16)----------------|
   G :----(5)-----8-8-8-8|------------------------|---------------------|
   D :----(5)-----8-8-8-8|------------------------|---------------------|
   A :----(3)-----6-6-6-6|------------------------|---------------------|



   D :-----15--14-(14)--------|-------14---------------|----------------||
   A :-17--------------15-----|------------14--(14)----|----------------||
   F :---------------------16-|-(16)-------------------|----------------||
   G :------------------------|------------------------|----------------||
   D :------------------------|------------------------|----------------||
   A :------------------------|------------------------|----------------||


   Verse: 3 ( Falling away...) It's 
   D :| ----15--14-(14)---------|------14--14---------|
   A :| 17--------------15------|---------------------|
   F :|*--------------------16--|(16)-----------------|
   G :|*------------------------|---------------------|
   D :| ------------------------|---------------------|
   A :| ------------------------|---------------------|

[ Tab from: http://www.guitartabs.cc/tabs/k/korn/falling_away_from_me_tab_ver_6.html ]
   Spinning round ... Repeat Chorus.. 
   D :----15--14-(14)---------|------14-------------- 1||----------------|
   A :17--------------15------|-----------14--(14)--- |||----------------|
   F :--------------------16--|(16)------------------*|||----------------|
   G :------------------------|----------------------*|||----------------|
   D :------------------------|---------------------- |||----------------|
   A :------------------------|---------------------- |||----------------|


   Then at (2:26): 
   D :----------------|----------------|----------------|----------------|
   A :----------------|----------------|----------------|----------------|
   F :----------------|----------------|----------------|----------------|
   G :5---------8--8--|--------2-------|--2---------2---|------2---------|
   D :5---------8--8--|--------2-------|--2---------2---|------2---------|
   A :3---------6--6--|--------0-------|--0---------0---|------0---------|


   Bridge: (2:38) Pressing me... .. 
   D :2--------2------|--2---------2---|---(2)---2--(2)---2-|
   A :0--------2------|--3---------5---|---(5)---3--(3)---2-|
   F :4--------4------|--2---------1---|---(1)---2--(2)---2-|
   G :----------------|----------------|--------------------|
   D :----------------|----------------|--------------------|
   A :----------------|----------------|--------------------|



   D :-2----------2---|--0-------0-----|---0---------0--|----------------|
   A :-3----------0---|--2-------0-----|---0---------0--|----0-----------|
   F :-0----------4---|--3-------2-----|---0---------0--|----8-----------|
   G :----------------|----------------|----------------|----9-----------|
   D :----------------|----------------|----------------|----------------|
   A :----------------|----------------|----------------|----------------|


   Well it's 
   D :----15--14-(14)---------|------14--14---------|
   A :17--------------15------|---------------------|
   F :--------------------16--|(16)-----------------|
   G :------------------------|---------------------|
   D :------------------------|---------------------|
   A :------------------------|---------------------|


   falling away..... 
   D :----15--14-(14)---------|------14----------------|
   A :17--------------15------|-----------14--(14)-----|
   F :--------------------16--|(16)--------------------|
   G :------------------------|------------------------|
   D :------------------------|------------------------|
   A :------------------------|------------------------|



   D :----15--14-(14)---------|------14--14---------|
   A :17--------------15------|---------------------|
   F :--------------------16--|(16)-----------------|
   G :------------------------|---------------------|
   D :------------------------|---------------------|
   A :------------------------|---------------------|



   D :----15--14-(14)---------|------14----------------|| ----------------|
   A :17--------------15------|-----------14--(14)-----|| ----------------|
   F :--------------------16--|(16)--------------------||*9--------9---9--|
   G :------------------------|------------------------||*8--------8---8--|
   D :------------------------|------------------------|| ----7--7--------|
   A :------------------------|------------------------|| 6---0--0-6---6--|


   Repeat Chorus 
   D :--------- 6|-------|----------------|----------------|
   A :--------- ||-------|----------------|----------------|
   F :---------*||9------|--9---9---------|----------------|
   G :---------*||8------|--8---8---------|----------------|
   D :7--7---7- ||----7--|7--------7------|----------------|
   A :0--0---0- ||6---0--|0-6---6--0------|----------------|


   Then At (3:49) Outro:(3:52) 
   D :----------------|| ----------------|----------------|----------------|
   A :----------------|| ----------------|----------------|----------------|
   F :----------------||*----------------|----------------|----------------|
   G :-5----------8-8-||*2-------9-------|5-------3--3----|2-------9-------|
   D :-5----------8-8-|| 2-------9-------|5-------3--3----|2-------9-------|
   A :-3----------6-6-|| 0-------7-------|3-------1--1----|0-------7-------|



   D :-------------- 1|----------------|---------------- 1|----------------|
   A :-------------- ||0-------0-----0-|----------0----- ||0-----0---------|
   F :--------------*||3---3---3-----3-|--3---3---3-----*||3--3--3---------|
   G :5-------8--8--*||----------------|----------------*||----------------|
   D :5-------8--8-- ||----------------|---------------- ||----------------|
   A :3-------6--6-- ||----------------|---------------- ||----------------|
Comments