Korn - Falling Away From Me Chords & Tabs

 

Falling Away From Me Chords & Tabs

Korn Chords & Tabs

Version: 4 Type: Tab 0 ratings
1 star 2 stars 3 stars 4 stars 5 stars
comments

Falling Away From Me Tab

   
Falling Away From Me - Guitar Tab


Transcribed By: "SEEF" (schnoogins13@hotmail.com)

Tuning : Low to High (A D G F A D)


Intro gtr. 1 (clean)                                                        
D ||----15---14-----------14---|----15---14-----------14--------|
A ||-17-----------15-----------|-17-----------15-----------14---|
F ||------------------16-------|------------------16------------|
G ||---------------------------|--------------------------------|
D ||---------------------------|--------------------------------|
A ||---------------------------|--------------------------------|
 
gtr. 1 & 2 (dist.) (play 8x)
D ||-------------------------|
A ||-------------------------|
F ||-9--------9--9-----------|
G ||-8--------8--8-----------|
D ||----7--7--------7--7--7--|
A ||-6--0--0--6--6--0--0--0--|
 
[ Tab from: http://www.guitartabs.cc/tabs/k/korn/falling_away_from_me_tab_ver_4.html ]
1st Chorus (dist.)
D ||---------------|----------------|---------------|----------------|
A ||---------------|----------------|---------------|----------------|
F ||---------------|----------------|---------------|----------------|
G ||-(2)----(9)----|-(5).-----3--3--|-(2)----(9)----|-(5).-----8--8--|
D ||-(2)----(9)----|-(5).-----3--3--|-(2)----(9)----|-(5).-----8--8--|
A ||-(0)----(7)----|-(3).-----1--1--|-(0)----(7)----|-(3).-----6--6--|
           Beating me down...
 
D ||---------------|----------------|---------------|-----------------|
A ||---------------|----------------|---------------|-----------------|
F ||---------------|----------------|---------------|-----------------|
G ||-(2)----(9)----|-(5).-----3--3--|-(2)----(9)----|-5--5----8-8-8-8-|
D ||-(2)----(9)----|-(5).-----3--3--|-(2)----(9)----|-5--5----8-8-8-8-|
A ||-(0)----(7)----|-(3).-----1--1--|-(0)----(7)----|-3--3----6-6-6-6-|
 
 
If you have any corrections or questions feel free to email me at schnoogins13@hotmail.com

HAVE FUN!!!
Comments