Korn - Falling Away From Me Chords & Tabs

 

Falling Away From Me Chords & Tabs

Korn Chords & Tabs

Version: 3 Type: Tab 7 ratings
1 star 2 stars 3 stars 4 stars 5 stars
comments

Falling Away From Me Tab

Falling Away From Me
[ Tab from: http://www.guitartabs.cc/tabs/k/korn/falling_away_from_me_tab_ver_3.html ]
Intro/Verse
-----10-13-12--------12----10-13-12---------12---
----------------13-10------------------13-10----12
-----------------------------------------------------
-----------------------------------------------------
-----------------------------------------------------
-----------------------------------------------------
-----------------------------------------------------

Break
----------------------
-----------------------
---------------------
 9-----9-----9-----9---- 
-8-----8-----8-----8-- 
----7-----7-----7----7-7-
-6--0--6--0--6--0--6-0-0| 
Chorus

------------------------
 ----------------------
 ------------------------
 ------------------------
 --2--9--5-3--2--9--5-8--|
| -2--9--5-3--2--9--5-8-
| -0--7--3-1--0--7--3-6--|
Comments