Korn - Falling Away From Me Chords & Tabs

 

Falling Away From Me Chords & Tabs

Korn Chords & Tabs

Version: 2 Type: Tab 0 ratings
1 star 2 stars 3 stars 4 stars 5 stars
comments

Falling Away From Me Tab

		            "Falling Away From Me"
                                     by
                                    KoRn
                               as tabbed by JN

INTRO/VERSE
x|-8-11-10-7---10~-8-11-10-6---11-10~-|
x|-----------7---------------7--------|
x|------------------------------------|
x|------------------------------------|
x|------------------------------------|
x|------------------------------------|
[ Tab from: http://www.guitartabs.cc/tabs/k/korn/falling_away_from_me_tab_ver_2.html ]
VERSE (guitar 1 plays intro, guitar 2 plays this)(i use thumb-over-the-top method)
x|-----|
x|-----|
x|-----|
x|-0-0-|
x|-2-2-|
x|-2-2-|

CHORUS
x|------------------------------------------------------------------|
x|------------------------------------------------------------------|
x|------------------------------------------------------------------|
x|-4----------6-----3----------------4----------6----3--------------|
x|-2----------4-----1----------------2----------4----1--------------|
x|-3----------5-----2----------------3----------5----2--------------|
   beating me down  down  beating me beating me down into the ground   
Comments