Korn - Falling Away From Me Chords & Tabs

 

Falling Away From Me Chords & Tabs

Korn Chords & Tabs

Version: 10 Type: Tab 0 ratings
1 star 2 stars 3 stars 4 stars 5 stars
comments

Falling Away From Me Tab

#-----------------------------PLEASE NOTE-------------------------------------#
#This OLGA file is the author's own work and represents their interpretation  #
#of the song. You may only use this file for private study, scholarship, or   #
#research. Remember to view this file in Courier, or some other monospaced    #
#font. See http://www.olga.net/faq/ for more information.                     #
#-----------------------------------------------------------------------------#

From: "alex hains" 
Subject: k/korn/falling_away_from_me.tab
Date: Tue, 22 Feb 2000 10:42:12 PST

Korn
Album.Issues
Falling away from me

Tunning 	Drop D

Dadgbe
[ Tab from: http://www.guitartabs.cc/tabs/k/korn/falling_away_from_me_tab_ver_10.html ]
Intro
x2
----------------------|-------------------------
-----14-13------------|-----14-13---------------
--15--------13-----15-|--15--------13-----15----
---------------13-----|---------------13-----15-
----------------------|-------------------------
----------------------|-------------------------

Heavy riff
x4
------------------------------------------
------------------------------------------
------------------------------------------
------------------------------------------
-0-5--0-7-0--0-5-0---let ring-------------
-0-5--0-7-0--0-5-0------------------------


Verse
x4
----------------------|-------------------------
-----14-13------------|-----14-13---------------
--15--------13-----15-|--15--------13-----15----
---------------13-----|---------------13-----15-
----------------------|-------------------------
----------------------|-------------------------

Chorus

------------------------------------------
------------------------------------------
------------------------------------------
--0---7---3----(3)------------------------
--0---7---3----(3)------------------------
--0---7---3----(3)------------------------
Comments