Korn - Falling Away From Me Chords & Tabs

 

Falling Away From Me Chords & Tabs

Korn Chords & Tabs

Version: 3 Type: Bass Tab 0 ratings
1 star 2 stars 3 stars 4 stars 5 stars
comments

Falling Away From Me Bass Tab

   
down tune your bass to Gb Db Ab Eb Bb

key;s=slap     f=finger pull      p=pluck

G----------------------------riff 1
D----------------------------
A----------------------------listen to the song for a bit first just
E----------------------------to get the timing correct
B-0-0-1-1-2-3----------------
  s s s s s s

G----------------------------riff 2
D----------------------------
A----------------------------fieldy has a distortion pedal here
E----------------------------it goes something like this anyway...
B-000-000-000-014------------
  fff fff fff fff

(thats not 14,thats 1 then 4!)
[ Tab from: http://www.guitartabs.cc/tabs/k/korn/falling_away_from_me_btab_ver_3.html ]
G---------------------------------------------------------------riff 3
D---------------------------------------------------------------
A---------------------------------------------------------------
E---------------------------------------------------------------
B-0---2---0--x-x--1---3---1--x-x--0---2---0--x-x--1---3---1--x-x
  s   s   s  f f  s   s   s  f f  s   s   s  f f  s   s   s


G------------------riff 4
D------------------
A---4-6^-----------you can barely hear fieldy playin in this part
E----5-------------but this is all that i could make out
B------------------
    ppp


G--------------------------riff 5
D--------------------------
A--------------------------you can barely hear him again for this part
E----3------------3--------
B-2------1---2-0------1---2
  p  p   p   p p  p   p   p


Order
riff1 x8
riff2 x4
riff1 x4
riff2 x4
riff3 x1
riff2 x5
riff3 x1
riff4 x16
riff5 x3
riff1 x8
riff3 x2
Comments