Korn - Falling Away From Me Chords & Tabs

 

Falling Away From Me Chords & Tabs

Korn Chords & Tabs

Version: 2 Type: Bass Tab 0 ratings
1 star 2 stars 3 stars 4 stars 5 stars
comments

Falling Away From Me Bass Tab

Band: Korn
Title: Falling Away From Me
Album: Issues
Tabbed by Jason Hernandez ( first attemt ) Dookie29@Yahoo.com
          Quincy Heijboer ( second attemt )quincyheijboer@hotmail.com
Tuning: ( low to high: A D G C )
* Don't slap

Riff A intro ( 0:00-0:37 ) Slap all notes

C||:--------------------------------------------------------
G||:--------------------------------------------------------
D||:--------------------------------------------------------
A||:---6---0---6---0---6---0---0---------------play 7x------

Riff B ( 0:37-0:55 ) *

C||:--------------------------------------------------------
G||:--------------------------------------------------------
D||:--------------------------------------------------------
A||:---0---0-----0---0-----0---0-----0---0------------------

Riff A ( 0:55-1:04 ) Slap all notes

C||:--------------------------------------------------------
G||:--------------------------------------------------------
D||:--------------------------------------------------------
A||:---6---0---6---0---6---0---0----------------------------

Riff B ( 1:04-1:22 ) *

C||:--------------------------------------------------------
G||:--------------------------------------------------------
D||:--------------------------------------------------------
A||:---0---0-----0---0-----0---0-----0---0------------------

Riff C ( 1:22-1:41 ) *

C||:--------------------------------------------------------
G||:--------------------------------------------------------
D||:----------1---------------------------------------------
A||:---0-------------3-----------1---1---1-----0------------

Riff B ( 1:41-2:08 ) *
[ Tab from: http://www.guitartabs.cc/tabs/k/korn/falling_away_from_me_btab_ver_2.html ]
C||:--------------------------------------------------------
G||:--------------------------------------------------------
D||:--------------------------------------------------------
A||:---0---0-----0---0-----0---0-----0---0------------------

Riff C ( 2:08-2:28 ) Let last note ring *

C:||--------------------------------------------------------
G:||--------------------------------------------------------
D:||----------1---------------------------------------------
A:||---0------------3-----1---1---1---0---------------------

Riff D ( 2:37-2:55 ) Speedy plucking on all notes *

C:||---9--------------9-----------------9-------------------
G:||-------9-----9----------9-----9--------7---7------------
D:||--------------------------------------------------------
A:||--------------------------------------------------------

Riff E ( 2:55-3:12 ) Let last note ring *

C:||--------------------------------------------------------
G:||--------------------------------------------------------
D:||---------2-----0----------------2-----0-----------------
A:||---0----------------1-----0-----------------1---1---1--0

Riff A ( 3:12-3:32 ) Slap all notes

C:||--------------------------------------------------------
G:||--------------------------------------------------------
G:||--------------------------------------------------------
A:||---6---0---6---0---6---0---0----------------------------

Riff C ( 3:32-4:09 ) Let last note ring *

C:||--------------------------------------------------------
G:||--------------------------------------------------------
D:||------------1-------------------------------------------
A:||-----0------------3-----1---1---1---0-------------------

Riff F END Let last note ring *

C:||--------------------------------------------------------
G:||--------------------------------------------------------
D:||--------------------------------------------------------
A:||-----0-----0-----0-----0--------------------------------
Comments