Korn - Fake Chords & Tabs

 

Fake Chords & Tabs

Korn Chords & Tabs

Version: 3 Type: Tab 0 ratings
1 star 2 stars 3 stars 4 stars 5 stars
comments

Fake Tab

   
Band- Korn
Song- Fake
Album0- Korn

Main                 x8 			    
D|--------------------|------|
A|--------------------|------|
F|--------------------|------|
C|--------------------|------|
G|--------------------|------|
D|-2-34-2-2-3-2-2-3-2-|-2-34-|
A|-0-12-0-0-1-0-0-1-0-|-0-12-|

Verse      x15
D|-14-----12-|
A|-----------|
F|-11-----9--|
C|-----------|
G|-----------|
D|-----------|
A|-----------|

Main                 x8 			    
D|--------------------|
A|--------------------|
F|--------------------|
C|--------------------|
G|--------------------|
D|-2-34-2-2-3-2-2-3-2-|
A|-0-12-0-0-1-0-0-1-0-|

Pre-Chorus                              x2
D|---------------------------------------|
A|---------------------------------------|
F|---------------------------------------|
C|---------------------------------------|
G|---------------------------------------|
D|-----13----14---13^----13----14--------|
A|-00----00----00-----00----00----00-12\-|

Chorus                          x2
D|------------------|------------|
A|------------------|------------|
F|------------------|------------|  
C|-1515151515151515-|------------|  
G|-1414141414141414-|------14----|  
D|-1313131313131313-|---12----12-|
A|-1212121212121212-|-13---------|

Verse       x8
D|-14-----12-|
A|-----------|
F|-11-----9--|
C|-----------|
G|-----------|
D|-----------|
A|-----------|

Main                 x8 			    
D|--------------------|
A|--------------------|
F|--------------------|
C|--------------------|
G|--------------------|
D|-2-34-2-2-3-2-2-3-2-|
A|-0-12-0-0-1-0-0-1-0-|
[ Tab from: http://www.guitartabs.cc/tabs/k/korn/fake_tab_ver_3.html ]
Pre-Chorus                              x4
D|---------------------------------------|
A|---------------------------------------|
F|---------------------------------------|
C|---------------------------------------|
G|---------------------------------------|
D|-----13----14---13^----13----14--------|
A|-00----00----00-----00----00----00-12\-|

Chorus                          x2
D|------------------|------------|
A|------------------|------------|
F|------------------|------------|  
C|-1515151515151515-|------------|  
G|-1414141414141414-|------14----|  
D|-1313131313131313-|---12----12-|
A|-1212121212121212-|-13---------|

Interlude    x4
D|-14---------|
A|---------12-|  (use your volume control 
F|-11---------|   for this riff)
C|---------9--|
G|------------|
D|------------|
A|------------|

Bridge   x3
D|--------|------|
A|--------|------|  
F|--------|------|  
C|------9-|---9\-|
G|--------|------|
D|--------|------|
A|--------|------|

Main                 x8 			    
D|--------------------|
A|--------------------|
F|--------------------|
C|--------------------|
G|--------------------|
D|-2-34-2-2-3-2-2-3-2-|
A|-0-12-0-0-1-0-0-1-0-|

Pre-Chorus                              x4
D|---------------------------------------|
A|---------------------------------------|
F|---------------------------------------|
C|---------------------------------------|
G|---------------------------------------|
D|-----13----14---13^----13----14--------|
A|-00----00----00-----00----00----00-12\-|

Outro (until it fades out)               
D|--------------------|		
A|--------------------|
F|--------------------|
C|--------------------|
G|--------------------|
D|-2-34-2-23-2--23--2-|
A|-0-12-0-01-0--01--0-|
Comments