Korn - Faget Chords & Tabs

 

Faget Chords & Tabs

Korn Chords & Tabs

Version: 7 Type: Tab

Faget Tab

   
KoRn - Faget - KoRn 

Tabbed by Elvisz (elvisz@kornkids.com)
Tuning : 7 String Tuned Low to High (A D G C F A D)

Vocal: Jonathan Houseman Davis 'Hiv'
Guitar1: Brian Phillip Welch 'Head'
Guitar2: James Randal Shaffer 'Munky'
Bass: Reginald Arvizu 'Fieldy'
Drums: David Silveria

Intro:
(Guitar1)
d|--------------------------|
a|--------------------------|
F|--------------------------|
C|-----------------10101010-|
G|------------------9-9-9-9-|
D|-7-77-7-77-7-7-7X-8-8-8-8-|
A|-0-00-0-00-0-0-0X---------|

(Guitar2 after guitar1 is finished)
d|-------------|
a|-------------|
F|-------------|
C|-------------|
G|-------------|
D|-7-8-8-8-7-7-|
A|-----9-----7-|

Pre-Verse:
d|--------------------------|------------------------------|
a|--------------------------|------------------------------|
F|--------------------------|------------------------------|
C|-----------------10101010-|------------------------------|	(Guitar1)
G|------------------9-9-9-9-|------------------------------|
D|-7-77-7-77-7-7-7X-8-8-8-8-|-7-77-7-77-7-7-7X-------------|
A|-0-00-0-00-0-0-0X---------|-0-00-0-00-0-0-0X-------------|

d|--------------------------|------------------------------|
a|--------------------------|------------------------------|
F|--------------------------|------------------------------|
C|-----------------10101010-|------------------------------|	(Guitar2)
G|------------------9-9-9-9-|------------------------------|
D|-7-77-7-77-7-7-7X-8-8-8-8-|-7-77-7-77-7-7-7X-7-8-8-8-7-7-|
A|-0-00-0-00-0-0-0X---------|-0-00-0-00-0-0-0X-----9-----7-|

Verse:
d|--------------------|
a|--------------------|
F|--------------------|
C|--------------------|	(Guitar1)
G|--------------------|
D|---------------8888-|
A|-0-00-0-00-000------|

d|----------------7------|----------------7----------0--|
a|-13--11--\4----------6-|-13--11--\4----------6---6--02|
F|-------------7----4----|-------------7----4-----4-----|
C|-----------------------|------------------------------|	(Guitar2)
G|-----------------------|------------------------------|
D|-----------------------|------------------------------|
A|-----------------------|------------------------------|

Chorus:
d|--------------------------|------------------------------|
a|--------------------------|------------------------------|
F|--------------------------|------------------------------|
C|-----------------10101010-|------------------------------|	(Guitar1)
G|------------------9-9-9-9-|------------------------------|
D|-7-77-7-77-7-7-7X-8-8-8-8-|-7-77-7-77-7-7-7X-------------|
A|-0-00-0-00-0-0-0X---------|-0-00-0-00-0-0-0X-------------|

d|--------------------------|------------------------------|
a|--------------------------|------------------------------|
F|--------------------------|------------------------------|
C|-----------------10101010-|------------------------------|	(Guitar2)
G|------------------9-9-9-9-|------------------------------|
D|-7-77-7-77-7-7-7X-8-8-8-8-|-7-77-7-77-7-7-7X-7-8-8-8-7-7-|
A|-0-00-0-00-0-0-0X---------|-0-00-0-00-0-0-0X-----9-----7-|

Verse:
d|--------------------|
a|--------------------|
F|--------------------|
C|--------------------|	(Guitar1)
G|--------------------|
D|---------------8888-|
A|-0-00-0-00-000------|

d|----------------7------|----------------7----------0--|
a|-13--11--\4----------6-|-13--11--\4----------6---6--02|
F|-------------7----4----|-------------7----4-----4-----|
C|-----------------------|------------------------------|	(Guitar2)
G|-----------------------|------------------------------|
D|-----------------------|------------------------------|
A|-----------------------|------------------------------|

Chorus:
d|--------------------------|------------------------------|
a|--------------------------|------------------------------|
F|--------------------------|------------------------------|
C|-----------------10101010-|------------------------------|	(Guitar1)
G|------------------9-9-9-9-|------------------------------|
D|-7-77-7-77-7-7-7X-8-8-8-8-|-7-77-7-77-7-7-7X-------------|
A|-0-00-0-00-0-0-0X---------|-0-00-0-00-0-0-0X-------------|
[ Tab from: http://www.guitartabs.cc/tabs/k/korn/faget_tab_ver_7.html ]
d|--------------------------|------------------------------|
a|--------------------------|------------------------------|
F|--------------------------|------------------------------|
C|-----------------10101010-|------------------------------|	(Guitar2)
G|------------------9-9-9-9-|------------------------------|
D|-7-77-7-77-7-7-7X-8-8-8-8-|-7-77-7-77-7-7-7X-7-8-8-8-7-7-|
A|-0-00-0-00-0-0-0X---------|-0-00-0-00-0-0-0X-----9-----7-|

Chorus-end:(Guitar1 & Guitar2)
d|--------------------------|
a|--------------------------|
F|--------------------------|
C|-----------------10101010-|
G|------------------9-9-9-9-|
D|-7-77-7-77-7X7X7X-8-8-8-8-|
A|-0-00-0-00-0X0X0X---------|

Verse:
d|--------------------|
a|--------------------|
F|--------------------|
C|--------------------|	(Guitar1)
G|--------------------|
D|---------------8888-|
A|-0-00-0-00-000------|

d|----------------7------|----------------7----------0--|
a|-13--11--\4----------6-|-13--11--\4----------6---6--02|
F|-------------7----4----|-------------7----4-----4-----|
C|-----------------------|------------------------------|	(Guitar2)
G|-----------------------|------------------------------|
D|-----------------------|------------------------------|
A|-----------------------|------------------------------|

Chorus:
d|--------------------------|------------------------------|
a|--------------------------|------------------------------|
F|--------------------------|------------------------------|
C|-----------------10101010-|------------------------------|	(Guitar1)
G|------------------9-9-9-9-|------------------------------|
D|-7-77-7-77-7-7-7X-8-8-8-8-|-7-77-7-77-7-7-7X-------------|
A|-0-00-0-00-0-0-0X---------|-0-00-0-00-0-0-0X-------------|

d|--------------------------|------------------------------|
a|--------------------------|------------------------------|
F|--------------------------|------------------------------|
C|-----------------10101010-|------------------------------|	(Guitar2)
G|------------------9-9-9-9-|------------------------------|
D|-7-77-7-77-7-7-7X-8-8-8-8-|-7-77-7-77-7-7-7X-7-8-8-8-7-7-|
A|-0-00-0-00-0-0-0X---------|-0-00-0-00-0-0-0X-----9-----7-|

Chorus-end:(Guitar1 & Guitar2)
d|--------------------------|
a|--------------------------|
F|--------------------------|
C|-----------------10101010-|
G|------------------9-9-9-9-|
D|-7-77-7-77-7X7X7X-8-8-8-8-|
A|-0-00-0-00-0X0X0X---------|

Bridge1:(Guitar1)
d|-------------------|
a|-------------------|
F|-------------------|
C|-------------------|
G|-------------------|
D|------7-----8----8-|
A|-0000---000---00---|

Bridge2:(Guitar1 & Guitar2)
d|----------------------|
a|----------------------|
F|----------------------|
C|----------------------|
G|-------9-----10----10-|
D|-------7------8-----8-|
A|-0000----000----00----|

Bridge3:
d|--------------|
a|--------------|
F|--------------|
C|--------------|	(Guitar1)
G|----4-----4-5-|
D|-2--2--3--2-3-|
A|-0-----1------|

d|------------------------------------------------------|
a|------------------------------------------------------|
F|-9999101010107999912121212109999101010107999910101010-|
C|-xxxxxxxxxxxxxxxxxxxxxxxxxxxxxxxxxxxxxxxxxxxxxxxxxxxx-| (Guitar2)
G|-7777 8 8 8 85777710101010 87777 8 8 8 857777 8 8 8 8-| (and variations...)
D|------------------------------------------------------|
A|------------------------------------------------------|

Verse:
d|--------------------|
a|--------------------|
F|--------------------|
C|--------------------|	(Guitar1)
G|--------------------|
D|---------------8888-|
A|-0-00-0-00-000------|

Chorus:
d|--------------------------|------------------------------|
a|--------------------------|------------------------------|
F|--------------------------|------------------------------|
C|-----------------10101010-|------------------------------|	(Guitar1)
G|------------------9-9-9-9-|------------------------------|
D|-7-77-7-77-7-7-7X-8-8-8-8-|-7-77-7-77-7-7-7X-------------|
A|-0-00-0-00-0-0-0X---------|-0-00-0-00-0-0-0X-------------|

d|--------------------------|------------------------------|
a|--------------------------|------------------------------|
F|--------------------------|------------------------------|
C|-----------------10101010-|------------------------------|	(Guitar2)
G|------------------9-9-9-9-|------------------------------|
D|-7-77-7-77-7-7-7X-8-8-8-8-|-7-77-7-77-7-7-7X-7-8-8-8-7-7-|
A|-0-00-0-00-0-0-0X---------|-0-00-0-00-0-0-0X-----9-----7-|

Chorus-end:(Guitar1 & Guitar2)
d|--------------------------|
a|--------------------------|
F|--------------------------|
C|-----------------10101010-|
G|------------------9-9-9-9-|
D|-7-77-7-77-7X7X7X-8-8-8-8-|
A|-0-00-0-00-0X0X0X---------|