Korn - Faget Chords & Tabs

 

Faget Chords & Tabs

Korn Chords & Tabs

Version: 6 Type: Tab 0 ratings
1 star 2 stars 3 stars 4 stars 5 stars
comments

Faget Tab

   
KoRn Faget
tabbed by:A.K.& T.A.
this is 110% correct
7-String tuned (A,D,G,C,F,A,D)
     Played w/ Heavy Distortion
Intro
gtr.1 Head
D-----------------------|
A-----------------------|
F-------------11111111--|
C-------------10101010--|  7X
G--------------9-9-9-9--|
D---777-77-777-8-8-8-8--|
A-0-000-00-000----------|

gtr.1 Head  gtr.2 Munky
A----------|--------------|
D----------|--------------|
G----------|--------------|
C----------|--------------|
F----------|--------------|
A---777-77-|-------9-7-8--|
D-0-000-00-|-7-9-7--------|
           |-slight-PM.-|
Riff 2
Both gtrs.1&2 Head & Munky         gtr.2 Munky
A---------------------------------|-------------|
D---------------------------------|-------------|
G---------------------------------|-------------|
C--------------10101010-----------|-------------|   4X
F--------------9-9-9-9------------|-----------9-|
A---777-77-777-8-8-8-8----7777-77-|-------9-7-8-|
D-0-000-00-000----------0-0000-00-|-7-9-7-------|
                                  |-slight-PM.-|
Riff 3
gtr.1 Head   8X    gtr.2 Munky   1X
A-----------------|------------------------------|
D-----------------|------------------------------|
G-----------------|-17-15------------16---15-----|
C-----------------|--------13-----12----15-------|
F-2-222-22-2234443|------------------------------|
A-----------------|------------------------------|
D-----------------|------------------------------|
|------PM.---------------------------------------|
gtr.2
-------------------------0---|
------------------------0----|
-17-15------------16--10-----|
--------13-----12----9----12-|
-----------------------------|
-----------------------------|
-----------------------------|
riff 2 & 3 is repeated 4x but the 3rd & 4th
time play this in between riff 2 & 3.
[ Tab from: http://www.guitartabs.cc/tabs/k/korn/faget_tab_ver_6.html ]
both gtr.1&2 Head & Munky
A-------------------------------|
D-------------------------------|
G----------------11111111-------|
C----------------10101010-------|  4X
F-4-44-5-4-5-444-9-9-9-9--------|
A-4-44-5-4-5-444-8-8-8-8--------|
D-2-22-3-2-3-222----------------|

Riff 4
gtr.2 Munky
A------------------------|
D------------------------|
G------------------------|
C--------------------  1-|2X
F------------------------|
A-----8----8--8---7------|
D-0000--000-00-000-------|
|----slight-PM.----------|

both gtrs.1&2 Head & Munky
A------------------|
D------------------|
G------------------|
C------------------|  8X
F-99999-9991099910-|
A-99999-9991099910-|
D-77777-777-8777-8-|

Riff 5
gtr.1 Head        12X  gtr.2 Munky    6X
A---------------------|-----------------|
D-9-9-9-9-1011111111--|-----------------|
G-101010101112121212--|-----------------|
C-8-8-8-8-9-10101010--|-3--3-4--3--3-2--|
F---------------------|-4--4-5--4--4-3--|
A---------------------|-4--4-5--4--4-3--|
D---------------------|-2--2-3--2--2-1--|

Riff 6
gtr.1 Head
A------------------------|
D------------------------|
G------------------------|
C------------------------|   8X
F-2-222-22-223-4443------|
A------------------------|
D------------------------|
|--------PM.-------------|
Riff 7
Both gtrs.1&2 Head & Munky         gtr.2 Munky
A---------------------------------|--------------|
D---------------------------------|--------------|
G--------------11111111-----------|--------------|
C--------------10101010-----------|--------------|
F--------------9-9-9-9------------|-----------9--|
A---777-77-777-8-8-8-8----7777-77-|-------9-7-8--|
D-0-000-00-000----------0-0000-00-|-7-9-7--------|
                                  |--slight-PM.-|
Outro
Both gtrs.1&2
A-------------------|
D-------------------|
G-------------------|
C-------------------|  8X
F-4-44-5-4-5-444555-|
A-4-44-5-4-5-444555-|
D-2-22-3-2-3-222333-|
Comments