Korn - Faget Chords & Tabs

 

Faget Chords & Tabs

Korn Chords & Tabs

Version: 1 Type: Tab 0 ratings
1 star 2 stars 3 stars 4 stars 5 stars
comments

Faget Tab



I play a detuned 6 string (DGCFAD)
I've observed how they play this on the video then 
simply translated it for a 6 string. Enjoy!

Intro w/distortion 

D|---------------------------------
A|---------------------------------
F|---------------------------------
C|---2--2-2-2-2--2-2--2-2--4-4-4-4-
G|---2--2-2-2-2--2-2--2-2--3-3-3-3-
D|---0--0-0-0-0--0-0--0-0--1-1-1-1- repeat x8

Intro break w/distortion

D|---------------
A|---------------
F|---------------
C|---------------
G|-----3-------1- 
D|---1---0-0-1--- 
	-P.M-

Chorus riff w/ heavy distortion 

D|---------------------------------
A|---------------------------------
F|---------------------------------
C|---2--2-2-2-2--2-2--2-2--4-4-4-4-
G|---2--2-2-2-2--2-2--2-2--3-3-3-3-
D|---0--0-0-0-0--0-0--0-0--1-1-1-1-
	
D|-------------------------------------
A|-------------------------------------
F|-------------------------------------
C|---2--2-2-2-2--2-2--2-2--------------
G|---2--2-2-2-2--2-2--2-2----3-------1-
D|---0--0-0-0-0--0-0--0-0--1---0-0-1--- repeat x8

		        |-----P.M----| 

Verse Riff (A) w/distortion

D|--------------------------------
A|--------------------------------
F|--------------------------------
C|--------------------------------
G|--2--2-2-2-2--2-2--2-2--3-3-3-3-
D|-------------------------------- repeat throughout verse
  |--------------P.M.-------------|

Verse Riff (B) w/overdrive

D|-------------------------------
A|-------------------------------
F|--17-15-----------15-----------
C|--------13----12---------13----
G|----------------------13----12-
D|------------------------------- repeat throughout verse

Chorus Riff w/ heavy distortion
[ Tab from: http://www.guitartabs.cc/tabs/k/korn/faget_tab.html ]
D|---------------------------------
A|---------------------------------
F|---------------------------------
C|---2--2-2-2-2--2-2--2-2--4-4-4-4-
G|---2--2-2-2-2--2-2--2-2--3-3-3-3-
D|---0--0-0-0-0--0-0--0-0--1-1-1-1-
	
D|-------------------------------------
A|-------------------------------------
F|-------------------------------------
C|---2--2-2-2-2--2-2--2-2--------------
G|---2--2-2-2-2--2-2--2-2----3-------1-
D|---0--0-0-0-0--0-0--0-0--1---0-0-1--- repeat x8
		        |-----P.M----| 

Verse break riff w/ distortion

D|---------------------------------
A|---------------------------------
F|---------------------------------
C|---------------------------------
G|--2-2-2-2-3----2-2-2-3--2-2-2-3--
D|--------------------------------- repeat x8
  |--------------P.M.-------------|

Heavy Riff w/ heavy distortion

D|---------------------------------
A|---------------------------------
F|---------------------------------
C|---2-2-2-2-2------2-2--4-4-4-4---
G|---2-2-2-2-2------2-2--3-3-3-3---
D|---0-0-0-0-0------0-0--1-1-1-1--- repeat x8

Riff (C) w/ distortion

D|--------------------------------------------
A|--------------------------------------------
F|-11--11-/-12--12-\-11--11-/-14-14-\-12-\-11-
C|-x---x----x---x-----x---x---x--x----x----x-- 
G|-9---9--/-10--10-\--9---9-/-12-12-\-10-\-9--
D|--------------------------------------------

D|--------------------------------------------
A|--------------------------------------------
F|-11--11-\-7--7-/-11-11-/-12--12-------------
C|-x---x----x--x---x--x----x---x--------------
G|-9---9--\-5--5-/-9--9--/-10--10-------------
D|--------------------------------------------

Then it continues on like this...

D|--------------------------------------------
A|--------------------------------------------
F|-11--11-/-12--12----11--11-/-12--12---------
C|-x---x----x---x-----x---x----x---x----------
G|-9---9--/-10--10----9---9--/-10--10---------
D|--------------------------------------------

Any questions email munky_wannabe@hotmail.com. 
Comments