Korn - Everything Ive Known Chords & Tabs

 

Everything Ive Known Chords & Tabs

Korn Chords & Tabs

Version: 2 Type: Tab 0 ratings
1 star 2 stars 3 stars 4 stars 5 stars
comments

Everything Ive Known Tab

everything ive known
korn
by:counting on me

intro
guitar 1
A----------------------------
E----------------------3-----
C---23---20---230---0--------x2
G----------------------------
D----------------------------
A-3----3----3----------------

guitar 2

A----------------------10----
E-10-11--10-8--10---11-8----8
C----------------------------
G----------------------------
D----------------------------
A----------------------------

with distortion guitar 1&2

A----------------------------
E----------------------------
C----------------------------
G-5-555-6-3/5----------------
D-5-555-6-3/5----------------
A-3-333-4-1/3----------------
verse guitar 1
A----------------------------
E-----------------------3----
C---23---20---230---0--------
G----------------------------
D----------------------------
A-3----3----3----------------

verse guitar 2(with efeects)

A---15-15----------------15-15-----------------
E-8---------8-6-18-15-8---------8-6--18-16-15--
C----------------------------------------------
G----------------------------------------------
D----------------------------------------------
A----------------------------------------------
[ Tab from: http://www.guitartabs.cc/tabs/k/korn/everything_ive_known_tab_ver_2.html ]
pre chorus guitar 1
A------------
E------------
C------------
G-5-8-9-10---
D-5-8-9-10---
A-3-6-7-8----

pre chorus guitar 2
A10-15-10h11p10-10-15-10h11p10-10-15-10h11p10-10-15-10h11p10-15-10-15-10
E-----------------------------------------------------------------------
C-----------------------------------------------------------------------
G-----------------------------------------------------------------------
D-----------------------------------------------------------------------
A-----------------------------------------------------------------------

chorus guitar 1&2
A----------------------------
E----------------------------
C----------------------------
G-5-555-6-3/5----------------
D-5-555-6-3/5----------------
A-3-333-4-1/3----------------

verse
pre chorus
chorus
intro

heavy part
A-----------------
E-----------------
C-----------------
G-565-565-563-65--
D-565-565-563-65--x2
A-343-343-341-43--

A-------------------
E-------------------
C-------------------
G-565-565-563-6543--
D-565-565-563-6543--
A-343-343-341-4321--

A----------------------------
E----------------------------
C----------------------------
G-565-565-563-6543-----------
D----------------------------
A----------------------------

pre chorus
chorus
more info (titofotito86@hotmail.com)
Comments