Korn - Everything Ive Known Chords & Tabs

 

Everything Ive Known Chords & Tabs

Korn Chords & Tabs

Version: 1 Type: Bass Tab 0 ratings
1 star 2 stars 3 stars 4 stars 5 stars
comments

Everything Ive Known Bass Tab

Band- Korn
Song- Everything I've Known
Tuning- 1 step down

Intro:
C------------------------------| (x1)
G------------------------------|
D--10--------------------------|
A----- 9/2~~-------------------|


Chorus(slapped):
C---------------------------| (repeat till verse)
G---5\3---------------------|
D---------------------------|
A-------2-22-2-30-----------|

[ Tab from: http://www.guitartabs.cc/tabs/k/korn/everything_ive_known_btab.html ]
Verse:
C------------------------| (repeat till pre chorus)
G5\3------------5-------|
D-----------5-3-5--------|
A--------2---------------|


Pre Chorus:
C--------------------------------| (x1)
G--------------------------------|
D-------1~-2~-3~-----------------|
A3~-----------------------------|

Pre Bridge (slapped):
C------------------------| (repeat till bridge)
G------------------------|
D------------------------|
A--2-3-0-----------------|

Bridge:
C-----------------------------------| (x1)
G-----------------------------------|
D---3/10~---------------------------|
A-----------------------------------|
Comments