Korn - Earache My Eye Chords & Tabs

 

Earache My Eye Chords & Tabs

Korn Chords & Tabs

Version: 2 Type: Tab 0 ratings
1 star 2 stars 3 stars 4 stars 5 stars
comments

Earache My Eye Tab

Band- Korn
Song- Earache My Eye
Album- Follow The Leader(Hidden Track)
Tuning- Standard Tuning

Intro
|----------------------------|
|----------------------------|
|----------------------------|
|----------------------------|x3
|--------------------5--5--2-|
|-7--6--5---7--6--5----------|
P.M.........................

|-------------------------|
|-------------------------|
|-------------------------|
|-------------------------|
|--------------------5--5-|
|-7--6--5---7--6--5-------|
P.M......................

Riff 1
|----------------------------|
|----------------------------|
|----------------------------|
|--------------------7--7--4-|x8
|-9--8--7---9--8--7--5--5--2-|
|-7--6--5---7--6--5----------|

Riff 2
|-----------------------------------------------|
|-----------------------------------------------|
|-----------------------------------------------|
|-----------------------------------------5-6-7-|
|-7-5-xx--------7-5-xx--------5--5--6--7--------|
|--------7-5-xx--------7-5-xx-------------------|
[ Tab from: http://www.guitartabs.cc/tabs/k/korn/earache_my_eye_tab_ver_2.html ]
Riff 3
|----------------------------|
|----------------------------|
|----------------------------|
|--------------------7--7--4-|x2
|-9--8--7---9--8--7--5--5--2-|
|-7--6--5---7--6--5----------|

|---------------------------|
|---------------------------|
|---------------------------|
|-------------------9--9--6-|x2
|11-10-9--11-10--9--7--7--4-|
|-9--8-7---9--8--7----------|

Riff 4
|----------------------------|
|----------------------------|
|----------------------------|
|--------------------7--7--4-|x4
|-9--8--7---9--8--7--5--5--2-|
|-7--6--5---7--6--5----------|

Riff 5
|----------------------------|
|----------------------------|
|----------------------------|
|----------------------------|x4
|--------------------5--5--2-|
|-7--6--5---7--6--5----------|
P.M.........................

Riff 6
|-------------------------|
|-------------------------|
|-------------------------|
|-------------------------|
|--------------------5--5-|
|-7--6--5---7--6--5-------|

Order:
Intro
Riff 1
Riff 2
Riff 3
Riff 2
Riff 4
Riff 2
Riff 1
Riff 3
Riff 5
Riff 1
Riff 6
Riff 1

Good hidden song by Korn. Let me know if there is something wrong. ENJOY!!!!!
Comments