Korn - Ear Ache My Eye Chords & Tabs

 

Ear Ache My Eye Chords & Tabs

Korn Chords & Tabs

Version: 2 Type: Tab 0 ratings
1 star 2 stars 3 stars 4 stars 5 stars
comments

Ear Ache My Eye Tab

   
this is the hidden track they did with cheech and chong on follow the leader its real easy to play 
the intro is about all they play 


Normal tuning for 6-string (E A D G B E)

Key:
/- slide up   \-slide down   ~Hold note out   

riff 1 with light dist.

A=-----------------------5-5-2   3X          
E=---7-6-5---7-6-5---------
p.m-----------------------------

A=-----------------------5-5~~~~
E=---7-6-5---7-6-5---------------
p.m.--------------------
[ Tab from: http://www.guitartabs.cc/tabs/k/korn/ear_ache_my_eye_tab_ver_2.html ]
(Wanna live...)heavy dist.

A=-----------------------5-5-2      4X
E=---7-6-5---7-6-5---------

(riff 2)

G=-11\10-xx----xx      2X      
D=-----------xx8/9xx
A=-9\8----xx-----xx
E=-----------xx6/7xx

G=-------------------------11~~~
D=-7/8--8--8--8-8-7/-----------
A=--------------------------9~~~
E=-5/6--6--6--6-6-5/-----------

(play riff 1 two times but hold the last note(s) for 1 measure)
then... ... 

A=---------------------9-9-5~~~~    2X
E=-9-8-7---9-8-7-----------------

Play riff 2 again)

s mostly the whole song so enjoy it 
Comments