Korn - Dirty Chords & Tabs

 

Dirty Chords & Tabs

Korn Chords & Tabs

Version: 2 Type: Bass Tab 0 ratings
1 star 2 stars 3 stars 4 stars 5 stars
comments

Dirty Bass Tab

   
-------------------------------------------------------------------------------
			        DIRTY - KoRn
-------------------------------------------------------------------------------

Tabbed By : KoRnKid89
e-mail: XblytheX89@aol.com

Tuning: ADGCF


  Intro/Verse:
F|------------------|----------------|
C|------------------|----------------|
G|----------7---8---|---------7---8--|
D|--0-0-0-0---0---0-|-0-0-0-0---0----|
A|------------------|----------------|  
  
                      Ending 1:          Ending 2:
F|------------------||-----------------||---------------|
C|------------------||-----------------||---------------|
G|----------7---8---||---------7-------||-------7-------|
D|--0-0-0-0---0---0-||-0-0-0-0---0-----||-0-0-0---------|
A|------------------||-----------------||---------------|
[ Tab from: http://www.guitartabs.cc/tabs/k/korn/dirty_btab_ver_2.html ]
  (The Intro simply repeats the top line 8x. Verse 1 plays the main riff 3x, 
   and on the 4th time it finishes with Ending 1. Verse 2, however, has it's 
   own intro that plays once and finishes with Ending 1; the verse itself 
   finishes with Ending 2.)  
  
  Pre-Chorus:
F|---------------------------------------------|
C|---------------------------------------------|
G|--7~-----------------------------------------|
D|---------------------------------------------|
A|------------7-h8--\3--3~--------5~--------0--|
  
  Chorus/Bridge, pts.1 & 3/Outro:
F|---------------------------------------------|
C|---------------------------------------------|
G|---------------------------------------------|
D|---------------------------------------------|
A|--5~--------8~-------\3~--------8~--------0--|
  (Chorus, Bridge, pts. 1 & 3: x2; Outro: x4) 
  

  Bridge, pt. 2:
F||--------------------|----------|----------|
C||--------------------|----------|----------|
G||--------------------|----------|----------|
D||--7--7-h8--8--8~----|-------7~-|-------7~-|
A|---------------------|----------|----------|
  (x3)

F||--------------------|----------|----------|
C||--------------------|----------|----------|
G||--------------------|----------|----------|
D||--7--7-h8--8--8~----|-------7~-|----------|
A|---------------------|----------|-------3\-|


| P  pop
| S  slap
| /  slide up
| \  slide down
| h  hammer-on
| p  pull-off
| ~  vibrato
| +  harmonic
| x  Mute note
===============================================================================
Comments