Korn - Did My Time Chords & Tabs

 

Did My Time Chords & Tabs

Korn Chords & Tabs

Version: 9 Type: Tab 0 ratings
1 star 2 stars 3 stars 4 stars 5 stars
comments

Did My Time Tab

Head and Munky ALWAYS use 7-String Ibanez tuned down 1 whole step to (ADGCFAD)
Tabbed by: Sean Klus

Intro
Guitar 1 (repeat)
D|--------------------------------------------------------------|
A|--------------------------------------------------------------|
F|--------------------------------------------------------------|
C|--------------------------------------------------------------|
G|---5h7-7-7--5h7-7-7--5h7-7-7--5h7-7-7-------------------------|
D|--------------------------------------------------------------|
A|--------------------------------------------------------------|

Guitar 2
I don't know if its
D|--------------------------------------------------------------|
A|--------------------------------------------------------------|
F|--------------------------------------------------------------|
C|--------------------------------------------------------------|
G|---5/8-8-8--5/8-8-8--5/8-8-8--5/8-8-8-------------------------|
D|---5/8-8-8--5/8-8-8--5/8-8-8--5/8-8-8-------------------------|
A|---3/6-6-6--3/6-6-6--3/6-6-6--3/6-6-6-------------------------|

or

D|--------------------------------------------------------------|
A|--------------------------------------------------------------|
F|--------------------------------------------------------------|
C|--------------------------------------------------------------|
G|---5/8-8-8--5/8-8-8--5/8-8-8--5/8-8-8-------------------------|
D|---x-x-x-x--x-x-x-x--x-x-x-x--x-x-x-x-------------------------|
A|---3/6-6-6--3/6-6-6--3/6-6-6--3/6-6-6-------------------------|

Both Guitars
D|--------------------------------------------------------------|
A|--------------------------------------------------------------|
F|--------------------------------------------------------------|
C|--------------------------------------------------------------|
G|---7-7-7------------------------------------------------------|
D|----------7-7-7----------------2-2-2--------------------------|
A|-----------------8-8-8--3-3-3---------------------------------|

or

D|--------------------------------------------------------------|
A|--------------------------------------------------------------|
F|--------------------------------------------------------------|
C|---2-2-2------------------------------------------------------|
G|---------2-2-2------------------------------------------------|
D|---------------3-3-3-------2-2-2------------------------------|
A|---------------------3-3-3------------------------------------|

Verse(I don't know if this is right)
D|--------------------------------------------------------------|
A|--------------------------------------------------------------|
F|--------------------------------------------------------------|
C|--------------------------------------------------------------|
G|-----7-7---7-7---7-7---7-7---8-8---8-8---8-8---8-8------------|
D|-----7-7---7-7---7-7---7-7---8-8---8-8---8-8---8-8------------|
A|---0h5-5-0h5-5-0h5-5-0h5-5-0h6-6-0h6-6-0h6-6-0h6-6------------|
[ Tab from: http://www.guitartabs.cc/tabs/k/korn/did_my_time_tab_ver_9.html ]
Chorus(Both Guitars)
D|--------------------------------------------------------------|
A|--------------------------------------------------------------|
F|--------------------------------------------------------------|
C|--------------------------------------------------------------|
G|---7-7-7------------------------------------------------------|
D|----------7-7-7----------------2-2-2--------------------------|
A|-----------------8-8-8--3-3-3---------------------------------|

or

D|--------------------------------------------------------------|
A|--------------------------------------------------------------|
F|--------------------------------------------------------------|
C|---2-2-2------------------------------------------------------|
G|---------2-2-2------------------------------------------------|
D|---------------3-3-3-------2-2-2------------------------------|
A|---------------------3-3-3------------------------------------|

Interlude
(Clean)
D|--------------------------------------------------------------|
A|--------------------------------------------------------------|
F|---------------------------------5----------------------------|
C|-----3-2----3-2------3-2----3-2-------------------------------|
G|----------------3---------------------------------------------|
D|--------------------------------------------------------------|
A|---3------3--------3------3-----------------------------------|

(Distortion)
Both Guitars
D|--------------------------------------------------------------|
A|--------------------------------------------------------------|
F|--------------------------------------------------------------|
C|--------------------------------------------------------------|
G|--------------------------------------------------------------|
D|--------------------------------------------------------------|
A|---3--3-3-3-3-3-3-3-1-1h3-3-3-3-3-3-3-3-1-1h3-3-3-3-3-3-3-3-1-|


D|--------------------------------------------------------------|
A|--------------------------------------------------------------|
F|--------------------------------------------------------------|
C|--------------------------------------------------------------|
G|--------------------------------------------------------------|
D|--------------------------------------------------------------|
A|---1h3-3-1h3-3-1h3-3-1h3-3-1h4-4-1h4-4-1h4-4-1h4-4------------|

Chorus(Both Guitars)
D|--------------------------------------------------------------|
A|--------------------------------------------------------------|
F|--------------------------------------------------------------|
C|--------------------------------------------------------------|
G|---7-7-7------------------------------------------------------|
D|----------7-7-7----------------2-2-2--------------------------|
A|-----------------8-8-8--3-3-3---------------------------------|

or

D|--------------------------------------------------------------|
A|--------------------------------------------------------------|
F|--------------------------------------------------------------|
C|---2-2-2------------------------------------------------------|
G|---------2-2-2------------------------------------------------|
D|---------------3-3-3-------2-2-2------------------------------|
A|---------------------3-3-3------------------------------------|

End Riff
D|--------------------------------------------------------------|
A|--------------------------------------------------------------|
F|--------------------------------------------------------------|
C|--------------------------------------------------------------|
G|--------------------------------------------------------------|
D|--------------------------------------------------------------|
A|---1h3-3-1h3-3-1h3-3-1h3-3-1h4-4-1h4-4-1h4-4-1h4-4------------|


thats about it, listen to the song and piece it together it sounds almost perfect. Enjoy.
Comments