Korn - Did My Time Chords & Tabs

 

Did My Time Chords & Tabs

Korn Chords & Tabs

Version: 8 Type: Tab 0 ratings
1 star 2 stars 3 stars 4 stars 5 stars
comments

Did My Time Tab

   
KoRn - Did My Time - 

Tabbed by Elvisz (elvisz@kornkids.com)
Tuning : 7 String Tuned Low to High (A D G C F A D)

Vocal: Jonathan Houseman Davis 'Hiv'
Guitar1: Brian Phillip Welch 'Head'
Guitar2: James Randal Shaffer 'Munky'
Bass: Reginald Arvizu 'Fieldy'
Drums: David Silveria

Intro:
d|------------------------------------|
a|------------------------------------|
F|------------------------------------|
C|------------------------------------|	(Guitar2)
G|------------------------------------|
D|-7999-7999-7999-7999-7999-7999-7999-|
A|------------------------------------|

d|-----------------|
a|-----------------|
F|-----------------|
C|-----------------|	(Guitar1)
G|---5---5---5---5-|
D|-----------------|
A|-0-3-0-3-0-3-0-3-|

d|---------------------------------|
a|---------------------------------|
F|---------------------------------|
C|---------------------------------|	(Guitar2)
G|---------------------------------|
D|-7101010-7101010-7101010-7101010-|
A|---------------------------------|

d|---------------------|
a|---------------------|
F|---------------------|
C|---------------------|	(Guitar2)
G|---------------------|
D|-7999-7999-7999-7999-|
A|---------------------|

d|-----------------|
a|-----------------|
F|-----------------|
C|-----------------|	(Guitar1)
G|---5---5---5---5-|
D|-----------------|
A|-0-3-0-3-0-3-0-3-|

d|---------------------------------|
a|---------------------------------|
F|---------------------------------|
C|---------------------------------|	(Guitar2)
G|---------------------------------|
D|-7101010-7101010-7101010-7101010-|
A|---------------------------------|

Pre-Verse:

d|-------------------|
a|-------------------|
F|-------------------|
C|-------------------|	(Guitar2)
G|-444---------------|
D|-----444-----------|
A|---------555-222-/4|

d|-------------------|
a|-------------------|
F|-------------------|
C|-666---------------|	(Guitar1)
G|-444-666-----------|
D|-----444-777-444-/6|
A|---------555-222-/4|

d|-------------------|
a|-------------------|
F|-------------------|
C|-------------------|	(Guitar2)
G|-444---------------|
D|-----444-----------|
A|---------555-222-/4|

Verse:

d|-----------------------------------------|
a|-----------------------------------------|
F|-----------------------------------------|
C|-----------------------------------------|	(Guitar1 & Guitar2)
G|-----------------------------------------|
D|---44---44---44---44---55---55---55---55-|
A|-0-22-0-22-0-22-0-22-0-33-0-33-0-33-0-33-|

Pre-Chorus:
[ Tab from: http://www.guitartabs.cc/tabs/k/korn/did_my_time_tab_ver_8.html ]
d|-------------------|
a|-------------------|
F|-------------------|
C|-------------------|	(Guitar2)
G|-444---------------|
D|-----444-----------|
A|---------555-222-/4|

Chorus:

d|-------------------|
a|-------------------|
F|-------------------|
C|-666---------------|	(Guitar1)
G|-444-666-----------|
D|-----444-777-444-/6|
A|---------555-222-/4|

d|---------|
a|---------|
F|-4-6-7-9-|
C|---------|	(Guitar1 tremolo picked)
G|-2-4-5-7-|
D|---------|
A|---------|

Verse:

d|-----------------------------------------|
a|-----------------------------------------|
F|-----------------------------------------|
C|-----------------------------------------|	(Guitar1 & Guitar2)
G|-----------------------------------------|
D|---44---44---44---44---55---55---55---55-|
A|-0-22-0-22-0-22-0-22-0-33-0-33-0-33-0-33-|

Pre-Chorus:

d|-------------------|
a|-------------------|
F|-------------------|
C|-------------------|	(Guitar2)
G|-444---------------|
D|-----444-----------|
A|---------555-222-/4|

Chorus:

d|-------------------|
a|-------------------|
F|-------------------|
C|-666---------------|	(Guitar1)
G|-444-666-----------|
D|-----444-777-444-/6|
A|---------555-222-/4|

d|---------|
a|---------|
F|-4-6-7-9-|
C|---------|	(Guitar1 tremolo picked)
G|-2-4-5-7-|
D|---------|
A|---------|

Bridge1:

d|-------------------|
a|-------------------|
F|-------------------|
C|-------------------|	(Guitar2)
G|----5-4~----5-4----|
D|----------------5~-|
A|-0~------0~--------|

Bridge2:

d|-----------------|
a|-----------------|
F|-----------------|
C|-----------------|	(Guitar1 & Guitar2)
G|-----------------|
D|-2--232-22-2-320-|
A|-0--010-00-0-100-|

Bridge3:

d|-----------------------------------------|
a|-----------------------------------------|
F|-----------------------------------------|
C|-----------------------------------------|	(Guitar1 & Guitar2)
G|-----------------------------------------|
D|---22---22---22---22---33---33---33---33-|
A|-0-22-0-22-0-22-0-22-0-33-0-33-0-33-0-33-|

Chorus:

d|-------------------|
a|-------------------|
F|-------------------|
C|-666---------------|	(Guitar1)
G|-444-666-----------|
D|-----444-777-444-/6|
A|---------555-222-/4|

d|---------|
a|---------|
F|-4-6-7-9-|
C|---------|	(Guitar1 tremolo picked)
G|-2-4-5-7-|
D|---------|
A|---------|

Outro:

d|-----------------------------------------|
a|-----------------------------------------|
F|-----------------------------------------|
C|-----------------------------------------|	(Guitar1 & Guitar2)
G|-----------------------------------------|
D|---44---44---44---44---55---55---55---55-|
A|-0-22-0-22-0-22-0-22-0-33-0-33-0-33-0-33-|
Comments