Korn - Did My Time Chords & Tabs

 

Did My Time Chords & Tabs

Korn Chords & Tabs

Version: 6 Type: Tab 0 ratings
1 star 2 stars 3 stars 4 stars 5 stars
comments

Did My Time Tab

First of all, I know Korn plays on 7 string guitars, and tune their guitars to
drop c or whereever they play.  I tabbed this just for fun, and to try it on a
6 string guitar.

Listen to song for timings and to play along with it.


Tabbed by:  poWerchrd1234
Tuning:  DADGBE

Guitar 1- Keep repeating this pattern.
Intro
e|---------------------------------------------------------------------------|
B|---------------------------------------------------------------------------|
G|---------------------------------------------------------------------------|
D|---------------------------------------------------------------------------|
A|-3--5-5-5-5-5-----3--5-5-5-5-5---------------------------------------------|
D|---------------------------------------------------------------------------|

Guitar 2-  Listen to song for this come on, eventually both guitars join in and
do this; listen to see how many times you play it
Intro
e|---------------------------------------------------------------------------|
B|---------------------------------------------------------------------------|
G|---------------------------------------------------------------------------|
D|---------------------------------------------------------------------------|
A|----2-2-2-2----2-2-2-2----2-2-2-2-----2-2-2-2------------------------------|
D|--0-2-2-2-2--0-2-2-2-2-0--2-2-2-2--0--2-2-2-2--0---------------------------|

Guitar 1- Not to sure after 3rd fret part... make up your own if you wish
Chorus 7x
e|---------------------------------------------------------------------------|
B|---------------------------------------------------------------------------|
G|---------------------------------------------------------------------------|
D|---------------------------------------------------------------------------|
A|--5-5-5-5---------------------------3--------------------------------------|
D|------------7-7-7-7----3-3-3-3---1-----------------------------------------|
[ Tab from: http://www.guitartabs.cc/tabs/k/korn/did_my_time_tab_ver_6.html ]
Both Guitars
Verses- Listen for the beat
e|---------------------------------------------------------------------------|
B|---------------------------------------------------------------------------|
G|---------------------------------------------------------------------------|
D|-------------------------repeat--------------------------------------------|
A|--0-0-0-0--1-1-1-1---------------------------------------------------------|
D|--0-0-0-0--1-1-1-1---------------------------------------------------------|

Guitar 1
Interlude- There is a rest right before the heavy part.
e|---------------------------------------------------------------------------|
B|---------------------------------------------------------------------------|
G|---------------------------------------------------------------------------|
D|-----------------------------------repeat----------------------------------|
A|-----6--5----------6--5--1-------------------------------------------------|
D|--0-------------0----------------------------------------------------------|

Both Guitars
Heavy part- You will to listen to the song to get this beat (" I DiD MY TIME")
e|---------------------------------------------------------------------------|
B|---------------------------------------------------------------------------|
G|---------------------------------------------------------------------------|
D|------------------------------------repeat---------------------------------|
A|---0--0--1--0--0--0--2--1--0-----------------------------------------------|
D|---0--0--1--0--0--0--2--1--0-----------------------------------------------|


After the heavy part, is the same as the verses
e|---------------------------------------------------------------------------|
B|---------------------------------------------------------------------------|
G|---------------------------------------------------------------------------|
D|---------------------------------------repeat------------------------------|
A|-0--0--0--0----1---1---1---1-----------------------------------------------|
D|-0--0--0--0----1---1---1---1-----------------------------------------------|

Then you end with the chorus !!!!

Listen to the song to get it, if you play this rite, you will hear it rite away...

Have fun with it !! Peace
Comments