Korn - Did My Time Chords & Tabs

 

Did My Time Chords & Tabs

Korn Chords & Tabs

Version: 5 Type: Tab 0 ratings
1 star 2 stars 3 stars 4 stars 5 stars
comments

Did My Time Tab

   
Tabbed by:Ryan Markoe
Email:Untouchables155@aol.com
Just a little different from the other tab. Im not sure this is right, its my first tab.

Tuning:7-String tuned 1 step down ADGCFAD
intro riff A
d|---------------------------------------------------------------------------|
A|---------------------------------------------------------------------------|
F|---------------------------------------------------------------------------|
C|---------------------------------------------------------------------------|
G|--5-777-5-777-5-777-5-777--------------------------------------------------|
D|---------------------------------------------------------------------------|
A|---------------------------------------------------------------------------|
x16
intro riff B
d|---------------------------------------------------------------------------|
A|---------------------------------------------------------------------------|
F|---------------------------------------------------------------------------|
C|---------------------------------------------------------------------------|
G|---------------------------------------------------------------------------|
D|---5-888-5-888-5-888-------------------------------------------------------|
A|---3-666-3-666-3-666-------------------------------------------------------|
Intro riff C / Chorus
d|---------------------------------------------------------------------------|
A|---------------------------------------------------------------------------|
F|---------------------------------------------------------------------------|
C|---------------------------------------------------------------------------|
G|---777---------------------------------------------------------------------|
D|-------777--333------------------------------------------------------------|
A|----------------333--77-55-------------------------------------------------|
[ Tab from: http://www.guitartabs.cc/tabs/k/korn/did_my_time_tab_ver_5.html ]
d|---------------------------------------------------------------------------|
A|---------------------------------------------------------------------------|
F|---------------------------------------------------------------------------|
C|---------------------------------------------------------------------------|
G|---------------------------------------------------------------------------|
D|-----77---77---77---77---88---88---88---88---------------------------------|
A|---0-55-0-55-0-55-0-55-0-66-0-66-0-66-0-66---------------------------------|


Chorus = Riff C
Bridge A
d|---------------------------------------------------------------------------|
A|---------------------------------------------------------------------------|
F|---------------------------------------------------------------------------|
C|---------------------------------------------------------------------------|
G|----------------------------3----------------------------------------------|
D|--1-0---1-0------1-0----1-0------------------------------------------------|
A|------3-----1--3------3----------------------------------------------------|
bridge B
d|---------------------------------------------------------------------------|
A|---------------------------------------------------------------------------|
F|---------------------------------------------------------------------------|
C|---------------------------------------------------------------------------|
G|---------------------------------------------------------------------------|
D|----5-555-55-5/6-4---------------------------------------------------------|
A|----3-333-33-3/4-2---------------------------------------------------------|
Bridge C / Outro
d|---------------------------------------------------------------------------|
A|---------------------------------------------------------------------------|
F|---------------------------------------------------------------------------|
C|---------------------------------------------------------------------------|
G|---------------------------------------------------------------------------|
D|-----55---55---55---55---66---66---66---66---------------------------------|
A|---0-33-0-33-0-33-0-33-0-44-0-44-0-44-0-44---------------------------------|


| /  slide up
| \  slide down
| h  hammer-on
| p  pull-off
| ~  vibrato
| +  harmonic
| x  Mute note
Comments