Korn - Did My Time Chords & Tabs

 

Did My Time Chords & Tabs

Korn Chords & Tabs

Version: 4 Type: Tab 0 ratings
1 star 2 stars 3 stars 4 stars 5 stars
comments

Did My Time Tab

   
Korn
"Did My Time"
Album: unnamed (due date of fall 2003, new single for Tomb Raider movie NOT soundtrack.
Tabbed by: Robert Walden
NOTE: I listened to this on the radio so i dont know the exact timing or order
of the song, listen and figure out to be sure.
Tuning: ADGCFad, to play on six string tune to ADGCFa
All seven strings distorted except for in Bridge A

Intro A (A and B interchange, not played at same time, listen to song to see)
-----------------
-----------------
-----------------
-----------------
-5777577757775777
-----------------
-----------------
Intro B   
-----------------
-----------------
-----------------
-----------------
-5888588858885888
-xxxxxxxxxxxxxxxx
-3666366636663666

Chorus
-----------------------
-----------------------
-----------------------
-----------------------
-777----------------555
----777-555-333-222----
-----------------------

Verses
----------------------------------------
----------------------------------------
----------------------------------------
----------------------------------------
----------------------------------------
---77---77---77---77---88---88---88---88
-0-55-0-55-0-55-0-55-0-66-0-66-0-66-0-66
[ Tab from: http://www.guitartabs.cc/tabs/k/korn/did_my_time_tab_ver_4.html ]
Bridge A
------------------------
------------------------
------------------------
------------------------
-----------------------3
--1-0--1-0----1-0--1-0--
-3----3----1-3----3-----

Bridge B
----------------
----------------
----------------
----------------
----------------
----------------
-3-343-3-3-343-1

Bridge C 
----------------------------------------
----------------------------------------
----------------------------------------
----------------------------------------
----------------------------------------
---55---55---55---55---66---66---66---66
-0-33-0-33-0-33-0-33-0-44-0-44-0-44-0-44

This may be the order this may not be ill put what i think it is, trusting that u
understand that i heard it on the radio and dont have a cd of it or nething so
just listen to be exact.

Intro A
Intro B
Intro A
Intro B
Intro A
Intro B
Chorus X4 (played once guitar byitself then band joins in after once)
Verse (really dont know order for verses)
Chorus X(not sure i think 8)
Verse X?
Bridge A X?
Bridge B X4
Bridge C X2 i think
Chorus X? (except for this chorus the band joins  in from the beginning not just guitar)
now it either ends on verse or on bridge c im not sure, but i BELIEVE it is verse.

Thats it, this is a great song, its a relief from the usual crazy effects they
use, IM me on AIM (kornfellow91) for comments or leave one in correction box.
Comments