Korn - Did My Time Chords & Tabs

 

Did My Time Chords & Tabs

Korn Chords & Tabs

Version: 2 Type: Tab 0 ratings
1 star 2 stars 3 stars 4 stars 5 stars
comments

Did My Time Tab

   
Artist:KoRn
Title:Did my time
Album:Take a look in the mirror
Tabbed by: Sam Ghantous
Tuning: (7string guitar, low 2 high) A-D-G-C-F-A-D
This is  the correct version. I got it out of a magazine. 
There are 4 guitars, but u basically only need 1 in my opinion, 
2 if u wanna be safe. Korn kick ass man check out their nu cd 
“take a look in the mirror” it comes out on November 25 03. the
guitarist Head and Munky r featured in this months edition of
guitar world so check out that.

Riff A                               Riff B
Guiar 1                             guitar 1+2
|---------------------------------|--------------------------------|
|---------------------------------|--------------------------------|
|---------------------------------|--------------------------------|
|-0-2-2-2-0-2-2-2-0-2-2-2-0-2-2-2-|--------------------------------|
|---------------------------------|--------------------------------|
|---------------------------------|--------------------------------|
|---------------------------------|3-6-6-6-3-6-6-6-3-6-6-6-3-6-6-6-|

Riff C                            Riff D
guitar 1                         guiars 1+2
|------------------------------|------------------------------|
|------------------------------|------------------------------|
|------------------------------|------------------------------|
|-2-2-2------------------------|-2-2-2------------------------|
|-------2-2-2------------------|-------2-2-2------------------|
|-------------3-3-3------2-2-2-|-------------3-3-3------2-2-2-|
|-------------------3-3-3------|-------------------3-3-3------|

Riff E (last time)
Guitars 1+2
|------------------------------|
|------------------------------|
|------------------------------|
|-2-2-2------------------------|
|-------2-2-2------------4-4-4-|
|-------------3-3-3------2-2-2-|
|-------------------3-3-3------|

Riff F
Guitars 1+2                     Guitars 1+2
|----------------------------|----------------------------|
|----------------------------|----------------------------|
|----------------------------|----------------------------|
|----------------------------|----------------------------|
|----------------------------|----------------------------|
|----------------------------|----------------------------|
|-3-5-5--3-5-5—-3-5-5--3-5-5—|-3-6-6--3-6-6--3-6-6--3-6-6-|
[ Tab from: http://www.guitartabs.cc/tabs/k/korn/did_my_time_tab_ver_2.html ]
Riff G (play during chorus)
Guitar 3
|-5----7----8----10-|
|-------------------|
|-------------------|
|-------------------|
|-------------------|
|-------------------|
|-------------------|
riff H
guitar 1 (clean) let ring 
|--------|----------|--------|----------|
|--------|----------|--------|----------|
|--------|----------|--------|--------5-|
|---3--2-|---3--2---|---3--2-|---3--2---|
|--------|-------3--|--------|----------|
|--------|----------|--------|----------|
|-3------|-3--------|-3------|-3--------|
|
|guitar 2 (clean) let ring
|--------|----------|--------|----------|
|--------|----------|--------|----------|
|--------|----------|--------|----------|
|--------|----------|--------|----------|
|--------|----------|--------|--------3-|
|---1--0-|---1—0----|---1--0-|---1--0---|
|-3------|-3-----1--|-3------|-3--------|
|
|guitar 3 (dist)
|--------|----------|--------|----------|
|--------|----------|--------|----------|
|--------|----------|-----(NH)----------|
|--------|----------|-------5|5 vibrato dip
|--------|----------|--------|----------|
|--------|----------|--------|----------|
|--------|----------|--------|----------|

Riff I
play the last riffs except for guitar3 with this 
guitar 3 there were the parenthesis on the page, but im not sure if 
|------------------------- | theyre played or not (dist)
|--------------------------|------------------|
|--------------------------|------------------|
|-(5)(5)----(5)-----(5)(5)—|(5)—(5)-----------|
|--------------------------|------------------|
|--------------------------|------------------|
|--------------------------|------------------|
|                                          the last 2 bars for guitar
|guitar4 (clean)                           3+4 have nothing...but keep
|--------------------------|------------------| on playing the first 2
|--------------------------|------------------| guitars
|--------------------------|-------------5----|
|--------7----5------------|-----7----5-------|
|--------------------------|------------------|
|--------------------------|------------------|
|--------------------------|------------------|










Riff J                              (flutter while diving?)
Guitar 3                                   ~~~~~~~~~~~~~
|-------------|-------------|-------------|------------|
|-------------|-------------|-------------|------------|
|(NH)---------|-------------|---(NH)------|------------|
|-5-----------|-------------|---(5)(5)(5)|(5)wammmy bar-|
|-------------|-------------|-------------|------------|
|-------------|-------------|-------------|------------|
|-------------|-------------|-------------|------------|
|
|guitar 4
|-------------|-------------|-------------|-------------|
|-------------|-------------|-------------|-------------|
|-------------|-------------|-------------|-------------|
|----7----5---|---(7)-------|---7---5-----|---7---5-----|
|-------------|-------------|-------------|-------------|
|-------------|-------------|-------------|-------------|
|-------------|-------------|-------------|-------------|

Riff K
|----------------------------|
|----------------------------|
|----------------------------|
|----------------------------|
|----------------------------|
|----------------------------|
|-3---3—-4h3---3---3---3h3/1-|

Riff L
|-------------------------|-------------------------|
|-------------------------|-------------------------|
|-------------------------|-------------------------|
|-------------------------|-------------------------|
|-------------------------|-------------------------|
|-------------------------|-------------------------|
|-1-3-3-1-3-3-1-3-3-1-3-3-|-1-4-4-1-4-4-1-4-4-1-4-4-|
Comments