Korn - Did My Time Chords & Tabs

 

Did My Time Chords & Tabs

Korn Chords & Tabs

Version: 14 Type: Tab 0 ratings
1 star 2 stars 3 stars 4 stars 5 stars
comments

Did My Time Tab

Did my time

Tab by "Ox" From "Death Silence"
--------------------------------------
--------------------------------------
-------------------------------------- Guitar 1
--------------------------------------
--------------------------------------
-3-5-5-5--3-5-5-5--3-5-5-5--3-5-5-5---

------------------------------------------------
------------------------------------------------
------------------------------------------------ Guitar 2
------------------------------------------------
----5--5--5-----5--5--5-----5--5--5-----5--5--5-
-0--3--3--3--0--3--3--3--0--3--3--3--0--3--3--3-

--------------------------------------------
--------------------------------------------
-------------------------------------------- Guitar 2
-4--4--4------------------------------------
-----------4--4--4--------------------------
---------------------5--5--5--2--2--2--/4---

-------------------------------------------
-------------------------------------------
-6--6--6----------------------------------- Guitar 1
-4--4--4--6--6--6--------------------------
-----------4--4--4-7--7--7--4--4--4--/6----
---------------------5--5--5--2--2--2--/4--

--------------------------------------------------------
--------------------------------------------------------
--------------------------------------------------------
--------------------------------------------------------
---4-4----4-4----4-4----4-4----5-5----5-5----5-5----5-5-
-0-2-2--0-2-2--0-22--0-22--03-3--03-3--03-3--03-3-
[ Tab from: http://www.guitartabs.cc/tabs/k/korn/did_my_time_tab_ver_14.html ]
--------------------------------------------
--------------------------------------------
-------------------------------------------- Guitar 2
-4--4--4------------------------------------
-----------4--4--4--------------------------
---------------------5--5--5--2--2--2--/4---

-------------------------------------------
-------------------------------------------
-6--6--6----------------------------------- Guitar 1
-4--4--4--6--6--6--------------------------
-----------4--4--4-7--7--7--4--4--4--/6----
---------------------5--5--5--2--2--2--/4--

-------------------------------
---------------------------3---
---3-2---3-2---3-2-----3-2-----
-------------------3-----------
-------------------------------
-3-----3-----3-------3---------

-----------------------
-----------------------
-----------------------
-----------------------
-2--2-3-2--2-2-2-3-0---
-0--0-1-0--0-0-0-1-0---

--------------------------------------------------------
--------------------------------------------------------
--------------------------------------------------------
--------------------------------------------------------
---4-4----4-4----4-4----4-4----5-5----5-5----5-5----5-5-
-0-2-2--0-2-2--0-22--0-22--03-3--03-3--03-3--03-3-

--------------------------------------------
--------------------------------------------
-------------------------------------------- Guitar 2
-4--4--4------------------------------------
-----------4--4--4--------------------------
---------------------5--5--5--2--2--2--/4---

------------------------------------------
------------------------------------------
-6--6--6---------------------------------- Guitar 1
-4--4--4--6--6--6-------------------------
----------4--4--4--7--7--7--4--4--4--/6---
-------------------5--5--5--2--2--2--/4-
Comments