Korn - Did My Time Chords & Tabs

 

Did My Time Chords & Tabs

Korn Chords & Tabs

Version: 10 Type: Tab 0 ratings
1 star 2 stars 3 stars 4 stars 5 stars
comments

Did My Time Tab

   
-------------------------------------------------------------------------------
			    Did My Time - Korn
-------------------------------------------------------------------------------

Tabbed by: Tyler Eibl
Email: Kornography32@hotmail.com

Tuning: Dropped A

Intro (played about 3 times)
|-------------------------------------------------------------------------|
|-------------------------------------------------------------------------|
|-------------------------------------------------------------------------|
|-2333-2333-2333-2333-2333-2333-2333---2-4-4-4-2-4-4-4-2-4-4-4-2-4-4-4----|
|--------------------------------------2-4-4-4-2-4-4-4-2-4-4-4-2-4-4-4----|
|--------------------------------------2-4-4-4-2-4-4-4-2-4-4-4-2-4-4-4----|

Intro ends with this (played faster)
|---------------------------|-----------------------------------------------|
|---------------------------|-----------------------------------------------|
|---------------------------|10-10-10---------------------------------------|
|---------------------------|---------10-10-10-6-6-6-0-0-0-0-5-5-5-5--------|
|-888-----------------------|8--8--8--10-10-10-6-6-6-0-0-0-0-5-5-5-5--------|
|------10-10-10--666--000-5-|---------10-10-10-6-6-6-0-0-0-0-5-5-5-5--------|

Verse
|-----------------------------------------------------------
|-----------------------------------------------------------
|-----------------------------------------------------------
|-1-3-3--1-3-3--1-3-3--1-3-3--1-4-4--1-4-4--1-4-4--1-4-4----
|-1-3-3--1-3-3--1-3-3--1-3-3--1-4-4--1-4-4--1-4-4--1-4-4----
|-1-3-3--1-3-3--1-3-3--1-3-3--1-4-4--1-4-4--1-4-4--1-4-4----

-----------------------------------------------------------|
-----------------------------------------------------------|
-----------------------------------------------------------|
-1-3-3--1-3-3--1-3-3--1-3-3--1-4-4--1-4-4--1--4--1--4------|
-1-3-3--1-3-3--1-3-3--1-3-3--1-4-4--1-4-4--1--4--1--4------|
-1-3-3--1-3-3--1-3-3--1-3-3--1-4-4--1-4-4--1--4--1--4------|
[ Tab from: http://www.guitartabs.cc/tabs/k/korn/did_my_time_tab_ver_10.html ]
 Pre-Chorus                  Chorus
|---------------------------|-----------------------------------------------|
|---------------------------|-----------------------------------------------|
|---------------------------|10-10-10---------------------------------------|
|---------------------------|---------10-10-10-6-6-6-0-0-0-0-5-5-5-5--------|
|-888-----------------------|8--8--8--10-10-10-6-6-6-0-0-0-0-5-5-5-5--------|
|------10-10-10--666--000-5-|---------10-10-10-6-6-6-0-0-0-0-5-5-5-5--------|


Bridge (played 3 times)                       Followed by..
|-------------------------------------------|---------------------|
|-------------------------------------------|---------------------|
|-----------------------------------------6-|---------------------|
|---3-4-------3-4-----------3-4------3-4----|-1-111-1-1--1-1-0----|
|------------------4------------------------|-1-111-1-1--1-1-0----|
|-0--------0-------------0--------0---------|-1-111-1-1--1-1-0----|

 And then...(X2)
|----------------------------------------------------------|
|----------------------------------------------------------|
|----------------------------------------------------------|
|-0-2-2--0-2-2--0-2-2--0-2-2--1-2-2--1-2-2--1-2-2--1-2-2---|
|-0-2-2--0-2-2--0-2-2--0-2-2--1-2-2--1-2-2--1-2-2--1-2-2---|
|-0-2-2--0-2-2--0-2-2--0-2-2--1-2-2--1-2-2--1-2-2--1-2-2---|

Chorus again..
|-----------------------------------------------|
|-----------------------------------------------|
|10-10-10---------------------------------------|
|---------10-10-10-6-6-6-0-0-0-0-5-5-5-5--------|
|8--8--8--10-10-10-6-6-6-0-0-0-0-5-5-5-5--------|
|---------10-10-10-6-6-6-0-0-0-0-5-5-5-5--------|

Ends with this..(x2)
|----------------------------------------------------------------|
|----------------------------------------------------------------|
|----------------------------------------------------------------|
|-2-3-3--2-3-3--2-3-3--2-3-3--3-4-4--3-4-4--3-4-4--3-4-4---------|
|-2-3-3--2-3-3--2-3-3--2-3-3--3-4-4--3-4-4--3-4-4--3-4-4---------|
|-2-3-3--2-3-3--2-3-3--2-3-3--3-4-4--3-4-4--3-4-4--3-4-4---------|


| /  slide up
| \  slide down
| h  hammer-on
| p  pull-off
| ~  vibrato
| +  harmonic
| x  Mute note

===============================================================================
Comments