Korn - Did My Time Chords & Tabs

 

Did My Time Chords & Tabs

Korn Chords & Tabs

Version: 8 Type: Bass Tab 0 ratings
1 star 2 stars 3 stars 4 stars 5 stars
comments

Did My Time Bass Tab

   
-------------------------------------------------------------------------------
			     DID MY TIME - KoRn
-------------------------------------------------------------------------------

Tabbed By : KoRnKid89
e-mail: XblytheX89@aol.com

Tuning: ADGCF


Just listen to the song; you'll know exactly when to come in.

  Intro pt. 1:
    S   S S  S   S S  S   S S  S   S S
F|--------------------------------------|
C|--------------------------------------|
G|--------------------------------------|
D|--------------------------------------|
A|--3h6-6-6--3h6-6-6--3h6-6-6--3h6-6-6--|

  Intro pt. 2 / Chorus:
     S  S SSP   S  P     S  S   P   S  S S
F|--------------------|--------------------|
C|--------------------|--------------------|
G|--------------------|--------------------|
D|----------3------2--|---------3------2-2-|
A|-0-5--0-00----3-----|--5--0-------3------|

     S  S SSP   S  P     S S    P   S  S S
F|--------------------|--------------------|
C|--------------------|--------------------|
G|--------------------|--------------------|
D|----------3------2--|---------3------2-2-|
A|---5--0-00----3-----|--5--0-------3------|
  (Intro pt. 2: x1; Chorus: x2)

  
  Verse:
    S   S   S   S   S   S   S   S     S   S   S   S   S   S   S   S
F|---------------------------------|---------------------------------|
C|---------------------------------|---------------------------------|
G|---------------------------------|---------------------------------|
D|---------------------------------|---------------------------------|
A|--3h5-5---3h5-5---3h5-5---3h5-5--|--3h6-6---3h6-6---3h6-6---3h6-6--| (x4)
  

  Bridge pt. 1:
F|----------------------------------|----------------------------------------|
C|----------------------------------|----------------------------------------|
G|----------------------------------|----------------------------------------|
D|----------------------------------|--7h9-9~----------------------------\1--|
A|--3~--------------------------\1--|----------------------------------------|
[ Tab from: http://www.guitartabs.cc/tabs/k/korn/did_my_time_btab_ver_8.html ]
  Bridge pt. 2:
F|----------------------------------|-------------------|
C|----------------------------------|-------------------|
G|--5-5--------5--5--5--5--5--------|-------5--5--------|
D|------4-3------------------4-3----|------------4-3----|
A|----------3--------------------3--|--3-------------3--|

F|-------------|-------------------|
C|-------------|-------------------|
G|--5-5--------|-------5--5--------|
D|------4-3----|------------4-3----|
A|----------3--|--3-------------3--|

  Bridge pt. 3: 
F|----------------------------------|----------------------------------------|
C|----------------------------------|----------------------------------------|
G|----------------------------------|----------------------------------------|
D|----------------------------------|--7h9-9~-----------------------(2)-(0)--|
A|--3~--------------------------\1--|----------------------------------------|

  Bridge pt. 4:
  (slap all)
F|---------------------|
C|---------------------|
G|---------------------|
D|---------------------|
A|--3--3-33-3-3-34--1--| (x8)


  Intro to final chorus:
    S   S   S   S   S   S   S   S     S   S   S   S   S   S   S   S
F|---------------------------------|---------------------------------|
C|---------------------------------|---------------------------------|
G|---------------------------------|---------------------------------|
D|---------------------------------|---------------------------------|
A|--1h3-3---1h3-3---1h3-3---1h3-3--|--1h4-4---1h4-4---1h4-4---1h4-4--| (x2)


  Outro:
    S   S   S   S   S   S   S   S     S   S   S   S   S   S   S   S
F|---------------------------------|---------------------------------|
C|---------------------------------|---------------------------------|
G|---------------------------------|---------------------------------|
D|---------------------------------|---------------------------------|
A|--3h5-5---3h5-5---3h5-5---3h5-5--|--3h6-6---3h6-6---3h6-6---3h6-6--| (x2)



| P  pop
| S  slap
| /  slide up
| \  slide down
| h  hammer-on
| p  pull-off
| ~  vibrato
| +  harmonic
| x  Mute note
===============================================================================
Comments