Korn - Did My Time Chords & Tabs

 

Did My Time Chords & Tabs

Korn Chords & Tabs

Version: 7 Type: Bass Tab 0 ratings
1 star 2 stars 3 stars 4 stars 5 stars
comments

Did My Time Bass Tab

   
KoRn-Did my time
Tabber:Mahmoud Makkieh
4 String Version
Tuning:Droped-D

Intro;
G/----------------------------------------------------------------------|
D/----------------------------------------------------------------------|
A/----------------------------------------------------------------------|
D/-3h6-6-6-3h6-6-6-3h6-6-6-3h6-6-6-----3h6-6-6-3h6-6-6-3h6-6-6-3h6-6-6--|

G/-----------------------------------------------------------|
D/-----------------------------------------------------------|(4X)
A/--------3~-----2-------------------------------------------|
D/-5--0~------3----------------------------------------------|

G/-----------------------------------------------------------|(4X)
D/-----------------------------------------------------------|
A/-----------------------------------------------------------|
D/-3-5-5--3-5-5--3-5-5--3-5-5--3-6-6--3-6-6--3-6-6--3-6-6----|

chorus
G/-------------------------------------------------------------|
D/-------------------------------------------------------------|(8X)
A/--------3~-----2---------------------------------------------|
D/-4--0~------4------------------------------------------------|
[ Tab from: http://www.guitartabs.cc/tabs/k/korn/did_my_time_btab_ver_7.html ]
Bridge
G/-------------------7-7-7-------------------------------------|
D/-------------12~\--------6-----------------------------------|
A/--------5/12---------------5---------------------------------|
D/--3~-3~------------------------------------------------------|

G/---7-7-7-7----------7-7-7------------------------------------|
D/-----------6-------------6-----------------------------------|(2X)
A/-------------5-------------4---------------------------------|
D/-3-------------3~3~----------3-------------------------------|

G/-------------------------------------------------------------|
D/-----------10~-----------------------------------------------|
A/------3/12---------------------------------------------------|
D/---3~----------8~--------------------------------------------|

G/-------------------------------------------------------------|
D/-------------------------------------------------------------|
A/-------------------------------------------------------------|
D/----3-3-4P3--3-3-3-4P3-1-------------------------------------|
--
G/-------------------------------------------------------------|
D/-------------------------------------------------------------|
A/-------------------------------------------------------------|
D/1-3-3-1-3-3-1-3-3-1-3-3-1-4-4-1-4-4-1-4-4-1-4-4--------------|

OUTRO
G/-------------------------------------------------------------|
D/-------------------------------------------------------------|
A/-------------------------------------------------------------|
D/-3-5-5-3-5-5-3-5-5-3-5-5-3-6-6-3-6-6-3-6-6-3-6-6-------------|
Comments