Korn - Did My Time Chords & Tabs

 

Did My Time Chords & Tabs

Korn Chords & Tabs

Version: 5 Type: Bass Tab 0 ratings
1 star 2 stars 3 stars 4 stars 5 stars
comments

Did My Time Bass Tab

SONG:      DID MY TIME
BAND:      KORN
ALBUM:     TAKE A LOOK IN THE MIRROR
TABBED BY: BERGIN


Tuned down one full step (low to high ADGCF)	
Slap all notes unless otherwise indicated

Come in on eighth measure
RIFF 1
F| ----------------------------------------------------------
C|-----------------------------------------------------------	
G|-----------------------------------------------------------	
D|-----------------------------------------------------------
A|------3---5-5-------3---5-5-------3---5-5-------3---5-5----

RIFF 2 
F| ----------------------------------------------------------
C|-----------------------------------------------------------	
G|-----------------------------------------------------------	
D|--------------3-------2------------------------------------
A|----5----0-------3-----------------------------------------

RIFF 3
F| ----------------------------------------------------------
C|-----------------------------------------------------------	
G|-----------------------------------------------------------	
D|-----------------------------------------------------------
A|----3---5-5---3---5-5---3—5-5---3---5-5--------------------

F| ----------------------------------------------------------
C|-----------------------------------------------------------	
G|-----------------------------------------------------------	
D|-----------------------------------------------------------
A|----3---6-6----3---6-6----3---6-6----3---6-6---------------
[ Tab from: http://www.guitartabs.cc/tabs/k/korn/did_my_time_btab_ver_5.html ]
RIFF 4
F| ----------------------------------------------------------
C|-------------------------------------------12--------------	
G|-------------------3/--------------------------------------	
D|-----------------------------------------------------------
A|-------3*--------------------------------------------------


F| ----------------------------------------------------------
C|-----12----------------------------------------------------	
G|------------------------3----------------------------------	
D|-----------------------------------------------------------
A|-----------------------------------------------------------



RIFF 5
              |     Don’t slap     |
F| -----------7-7-7------------------------------------------
C|---------------------6-------------------------------------	
G|-------------------------5---------------------------------	
D|-----------------------------------------------------------
A|-----3---------------------------3-------------------------

RIFF 6
F| ----------------------------------------------------------
C|-----------------------------------------------------------	
G|-----------------------------------------------------------	
D|-----------------------------------------------------------
A|-------3---3---4-3-----3—3—3—4-3-1-------------------------

RIFF 7
F| ----------------------------------------------------------
C|-----------------------------------------------------------	
G|-----------------------------------------------------------	
D|-----------------------------------------------------------
A|-----1---3-3---1---3-3---1---3-3---1---3-3-----------------


F| ----------------------------------------------------------
C|-----------------------------------------------------------	
G|-----------------------------------------------------------	
D|-----------------------------------------------------------
A|-----1---4-4----1---4-4---1---4-4---1---4-4----------------


HOW TO PLAY IT

RIFF 1—x2
RIFF 2—x8
RIFF 3—x4
RIFF 2—x8
RIFF 3—x4
RIFF 4—x8
RIFF 4—x1
RIFF 5—x5
RIFF 4—x1
RIFF 6—x8
RIFF 7—x2
RIFF 2—x8
RIFF 3—x2
Comments