Korn - Did My Time Chords & Tabs

 

Did My Time Chords & Tabs

Korn Chords & Tabs

Version: 2 Type: Bass Tab 0 ratings
1 star 2 stars 3 stars 4 stars 5 stars
comments

Did My Time Bass Tab

artist: K o r N
album: n/a right now wait till fall of 2003
Tabbed By : Ki11er
e-mail: crazy_guitar66@yahoo.com

Tuning: drop d

ok im kinda geussing here so dont rip my head off if its wrong. same goes for the lyrics too!!!
verse: slap
G|---------------------------------------------------------------------------|
D|---------------------------------------------------------------------------|
A|---------------------------------------------------------------------------|
D|---0-0----0-0----0-0----0-0----0-0----0-0----0-0----0-0----0-0----0-0------|

Chorus: pluck
G|---7-----------------------7------------------------------|  REAPEt
D|-------8------------------------8-------------------------|
A|-----------8---0--7----------------8---0---7--------------|
D|----------------------------------------------------------|
[ Tab from: http://www.guitartabs.cc/tabs/k/korn/did_my_time_btab_ver_2.html ]
middle part
G|-------------------------------------------------------------|mess around 
D|-------------------------------------------------------------|with that 
A|-------------------------------------------------------------| a while
D|---7--7-7-7----7-7----7--7-----77-----------------------------|

lyrics::


relize, i can never win
sometimes, feel like i have failed
inside, where do i begin
MY mind is laughing at me
tell me why am i to blame
arent we suppose to be the same
thats why, i will never change this thing thats burning in me

i am the one who choose my path
i am the one who couldnt last
i feel the life swallow me
i feel the anger changing me

sometimes, i can never tell
and find something left of pain
thats why i just had to leave
for this is desolating
tell me why am i to blame
arent we suppose to be the same
thats why, i will never change this thing thats burning in me

i am the one who choose my path
i am the one who couldnt last
i feel the life swallow me
i feel the anger changing me

BEtrayed, i feel so
insane, i really    TRY!!

i did my time (x5)


i am the one who choose my path
i am the one who couldnt last
i feel the life swallow me
i feel the anger changing me

Oh god, the anger is changing me
i want, the anger changing me
Comments