Korn - Deep Inside Chords & Tabs

 

Deep Inside Chords & Tabs

Korn Chords & Tabs

Version: 1 Type: Tab 0 ratings
1 star 2 stars 3 stars 4 stars 5 stars
comments

Deep Inside Tab

Deep Inside
Artist: Korn
I only have the Verse and the Chorus this time. I just submitted Right
Now and Lets do this Now so I'm going ahead and submitting these two
riffs for people to work on. This song is heavy and awesome like the 
rest of them. Korn made this CD with the idea that they wanted a well
rounded record without songs that they new were gonna be singles 
(hence track #12 "Y'all want a Single?" a song where they say fuck 
maybe more than in that one Limp Bizkit song, only the Korn song is 
heavy and cool and that Limp Bizkit song just kinda sucked...) but 
anyway as a fan i think this song is slightly less single-caliber than
the last two songs i tabbed. So here are the two riffs
Verse: I'm pretty much positive about this one:
Low
D-------------2-------2-------4--5--------------2-------2-------4--5-
A-0-0-0--0--0-0--0--0-0--0--0-2--3--0-0-0--0--0-0--0--0-0--0--0-2--3-

Chorus: I know this riff is right up to the descending power chord
part. I'm not sure about that part something still doesn't sound right
but I'll go ahead and give what I've got:
F--11-11-11---12-12-12---11-11-11-------
C---x--x--x----x--x--x----x--x--x-------
G---9--9--9---10-10-10----9--9--9-------
D---------------------------------7-6-5-
A-0---------0----------0----------5-4-3-

F--11-11-11---12-12-12---11-11-11-------
C---x--x--x----x--x--x----x--x--x-------
G---9--9--9---10-10-10----9--9--9-------
D---------------------------------5-4-3-
A-0---------0----------0----------3-2-1-
[ Tab from: http://www.guitartabs.cc/tabs/k/korn/deep_inside_tab.html ]
Comments