Korn - Deep Inside Chords & Tabs

 

Deep Inside Chords & Tabs

Korn Chords & Tabs

Version: 1 Type: Bass Tab 0 ratings
1 star 2 stars 3 stars 4 stars 5 stars
comments

Deep Inside Bass Tab

-------------------------------------------------------------------------
			     SONG NAME - Deep Inside
-------------------------------------------------------------------------

Tabbed By : Ki11er
e-mail: Crazy_guitar66@yahoo.com

Tuning:ADGCF (down a whole step on each string)

Intro:
   F|---------------------------------------------------------------|
   C|---------------------------------------------------------------|
   G|---------------------------------------------------------------|
   D|------------------222-----333-----222----4---------------------|  X4
   A|---9/--3-2-0---0-------0-------0-------------3-2---0-----------|

verse:
   F|---------------------------------------------------------------|
   C|---------------------------------------------------------------|
   G|---------------------------------------------------------------|  X4
   D|------2-2--2------2-2--2------2-2--2----------(rest for a sec)-|
   A|--0-----------0-----------0-----------0------------------------|
[ Tab from: http://www.guitartabs.cc/tabs/k/korn/deep_inside_btab.html ]
Middle part: 
   F|----------------------------------------------------------------------|
   C|---44------------55----------------------44----------55---------------|
   G|-------3-------------4-----------------------3-----------4------------|
   D|-2------------3-----------4-----------2-----------3-----------4-------|
   A|-------------------------------3-2--------------------------------3-2-|

   F|---------------------------------------------------------------|
   C|---------------------------------------------------------------|
   G|---------------------------------------------------------------|
   D|---------------------------------------------------------------|
   A|--0------0-----0--0--0--------0----------0------------0-0-0----|

Outro:
   F|---------------------------------------------------------------|
   C|---------------------------------------------------------------|
   G|---------------------------------------------------------------|
   D|-----2-------3--------2------------2--------3--------2---------|
   A|--0------0--------0--------3-2-0-------0---------0-------------|

im pretty sure this is correct. plz send a email to me for any questions or comments.
Comments