Korn - Dead Bodies Everywhere Chords & Tabs

 

Dead Bodies Everywhere Chords & Tabs

Korn Chords & Tabs

Version: 6 Type: Tab 0 ratings
1 star 2 stars 3 stars 4 stars 5 stars
comments

Dead Bodies Everywhere Tab

   
Band- Korn
Song- Dead Bodies Everywhere
Album- Follow The Leader

  B5                  Cmaj7
     x 2 2 4 4 x x        x 2 2 x 0 0 x

Gtr I (A D G C F A D) - 'Gtr.1'
Gtr II (A D G C F A D) - 'Gtr.2'
Gtr III (A D G C F A D) - 'Gtr.3'
Gtr IV (A D G C F A D) - 'Gtr.4'
Gtr V (A D G C F A D) - 'Gtr.5'
Gtr VI (A D G C F A D) - 'Gtr.6'

 Intro
  Slow/Tempo I Q=48
               B5
 4/4
             Gtr II
  W             W
                |
                /

             Gtr I
  Wx2           E  E  E  E  E  E  S  S  S  S
|------------|-------21----------------19----|
|------------|----19----19----19----19----19-|
|------------|-20----------20----20----------|
|------------|-------------------------------|
|------------|-------------------------------|
|------------|-------------------------------|
|------------|-------------------------------|


    +W
     |
     /

     E  E  E  E  E  E  S  S  S  S   5x
||--------21----------------19------||
||-----19----19----19----19----19---||
||o-20----------20----20-----------o||
||----------------------------------||
||o--------------------------------o||
||----------------------------------||
||----------------------------------||


    Faster/Tempo II Q=96
    D5C#B5      D5C#5   B5  C#5     D5C#B5      D5C#5   B5  C#5
    Gtrs III, IV
                     ~~~                             ~~~
    S S S S S S S S +E  e S S S S   S S S S S S S S +E  e S S S S
||--------------------------------|----------------------------------|
||--------------------------------|----------------------------------|
||o-------------------------------|----------------------------------|
||--------------------------------|----------------------------------|
||o-------------------------------|----------------------------------|
||--5s4-2-2---x-5-4-(4)-2-2-4-----|-5s4-2-2---x-5-4-(4)-2-2-4--------|
||--3s2-0-0---x-3-2-(2)-0-0-2---0-|-3s2-0-0---x-3-2-(2)-0-0-2---0----|


  D5C#B5      D5C#5   B5  C#5     D5C#B5      D5C#5   B5  C#5
                   ~~~                             ~~~
  S S S S S S S S +E  e S S S S   S S S S S S S S +E  e S S E
|-------------------------------|------------------------------||
|-------------------------------|------------------------------||
|-------------------------------|-----------------------------o||
|-------------------------------|------------------------------||
|-------------------------------|-----------------------------o||
|-5s4-2-2---x-5-4-(4)-2-2-4-----|-5s4-2-2---x-5-4-(4)-2-2-4----||
|-3s2-0-0---x-3-2-(2)-0-0-2---0-|-3s2-0-0---x-3-2-(2)-0-0-2----||


                         Verses 1 and 2
  B5
  Gtr II
  H         Q   E S S       W                    H         Q   E E
                  | |                                            |
                  x x                                            x

  Gtr V
  Q  E  E  +H              +H.       +E    E    +Q.    E  +H
|---------------------||---------------------|----------------------|
|------12-(12)--------||--(12)------(12)-/19-|-(19)---20-(20)-------|
|---------------------||o--------------------|----------------------|
|---------------------||---------------------|----------------------|
|---------------------||o--------------------|----------------------|
|---------------------||---------------------|----------------------|
|---------------------||---------------------|----------------------|


    W                    H         Q   E E    W
                                         |
                                         x

    H.       +E    E    +Q.    E  +H          H.       +E    E
|--------------------|---------------------|-------------------|
|-\11-------(11)-/19-|-(19)---17-(17)------|-12-------(12)-/19-|
|--------------------|---------------------|-------------------|
|--------------------|---------------------|-------------------|
|--------------------|---------------------|-------------------|
|--------------------|---------------------|-------------------|
|--------------------|---------------------|-------------------|


    H         Q   E E     W                    E  E E  E  +H
                    |                             |    |   |
                    x                             x    o   /

   +Q.    E  +H           H.       +E    E    +Q.      E  +H
|---------------------|--------------------|---------------------|
|-(19)---20-(20)------|-\11-------(11)-/19-|-(19)-----17-(17)----|
|---------------------|--------------------|---------------------|
|---------------------|--------------------|---------------------|
|---------------------|--------------------|---------------------|
|---------------------|--------------------|---------------------|
|---------------------|--------------------|---------------------|


 Chorus
  D5C#B5      D5C#5   B5  C#5     D5C#B5      D5C#5   B5  C#5
  Gtrs III, IV
                   ~~~                             ~~~
  S S S S S S S S +E  e S S S S   S S S S S S S S +E  e S S S S
|-------------------------------|----------------------------------|
|-------------------------------|----------------------------------|
|-------------------------------|----------------------------------|
|-------------------------------|----------------------------------|
|-------------------------------|----------------------------------|
|-5s4-2-2---x-5-4-(4)-2-2-4-----|-5s4-2-2---x-5-4-(4)-2-2-4--------|
|-3s2-0-0---x-3-2-(2)-0-0-2---0-|-3s2-0-0---x-3-2-(2)-0-0-2---0----|


  D5C#B5      D5C#5   B5  C#5     D5C#B5      D5C#5   B5  C#5
                   ~~~                             ~~~
  S S S S S S S S +E  e S S S S   S S S S S S S S +E  e S S E
|-------------------------------|-----------------------------|
|-------------------------------|-----------------------------|
|-------------------------------|-----------------------------|
|-------------------------------|-----------------------------|
|-------------------------------|-----------------------------|
|-5s4-2-2---x-5-4-(4)-2-2-4-----|-5s4-2-2---x-5-4-(4)-2-2-4---|
|-3s2-0-0---x-3-2-(2)-0-0-2---0-|-3s2-0-0---x-3-2-(2)-0-0-2---|


  D5C#B5      D5C#5   B5  C#5     D5C#B5      D5C#5   B5  C#5
                   ~~~                             ~~~
  S S S S S S S S +E  e S S S S   S S S S S S S S +E  e S S S S
|-------------------------------|----------------------------------|
|-------------------------------|----------------------------------|
|-------------------------------|----------------------------------|
|-------------------------------|----------------------------------|
|-------------------------------|----------------------------------|
|-5s4-2-2---x-5-4-(4)-2-2-4-----|-5s4-2-2---x-5-4-(4)-2-2-4--------|
|-3s2-0-0---x-3-2-(2)-0-0-2---0-|-3s2-0-0---x-3-2-(2)-0-0-2---0----|


  D5C#B5      D5C#5   B5  C#5
                   ~~~
  S S S S S S S S +E  e S S S S
|-------------------------------|
|-------------------------------|
|-------------------------------|
|-------------------------------|
|-------------------------------|
|-5s4-2-2---x-5-4-(4)-2-2-4-----|
|-3s2-0-0---x-3-2-(2)-0-0-2---0-|
|
| W
|-------------------------------|
|-------------------------------|
|-------------------------------|
|-------------------------------|
|-------------------------------|
|-------------------------------|
|-------------------------------|

[ Tab from: http://www.guitartabs.cc/tabs/k/korn/dead_bodies_everywhere_tab_ver_6.html ]
 1.                                 2.
  D5C#B5      D5C#5     B5   C#5
                   ~~~~~                              ~~~
  S S S S S S S S +E    e  S S E     S S S S S S S S +E  e S S E
|---------------------------------||-----------------------------||
|---------------------------------||-----------------------------||
|--------------------------------o||-----------------------------||
|---------------------------------||-----------------------------||
|--------------------------------o||-----------------------------||
|-5s4-2-2---x-5-4-(4)---2--2-4----||-5s4-2-2---x-5-4-(4)-2-2-4---||
|-3s2-0-0---x-3-2-(2)---0--0-2----||-3s2-0-0---x-3-2-(2)-0-0-2---||
|
| Gtr V
| H                Q       Q         W
|---------------------------------||-----------------------------||
|-----------------12------12------||-----------------------------||
|-----------------14b16----------o||-----------------------------||
|---------------------------------||-----------------------------||
|--------------------------------o||-----------------------------||
|---------------------------------||-----------------------------||
|---------------------------------||-----------------------------||


 Interlude
  Slower/Tempo I Q=48
  B5
  Gtr II
  W          +W           +W
  |           |            |
  /           /            /

  Gtr I
  W               W        E  E  E  E  E  E  S  S  S  S
|----------|------------|-------21----------------19----|
|----------|------------|----19----19----19----19----19-|
|----------|------------|-20----------20----20----------|
|----------|------------|-------------------------------|
|----------|------------|-------------------------------|
|----------|------------|-------------------------------|
|----------|------------|-------------------------------|


  +W
   |
   /

   E  E  E  E  E  E  S  S  S  S
|-------21----------------19-----|
|----19----19----19----19----19--|
|-20----------20----20-----------|
|--------------------------------|
|--------------------------------|
|--------------------------------|
|--------------------------------|


   Interlude 2
    Faster/Tempo III Q=104
    N.C.(B5)
    Gtr II
    W                       W
    Gtr VI
    E  Q.    E  E  E  E    +E   E  E E  E  E  E  S  S
||----19----20-19-19----|--------------------------18-|
||-------------------19-|-(19)-20-19---19-------------|
||o---------------------|-----------------17----17----|
||----------------------|-----------------------------|
||o---------------------|-----------------------------|
||----------------------|-----------------------------|
||----------------------|-----------------------------|
|
|   Gtr V
|                                          <
|                                          ~~~
|   W                       H           E  Q.
||----------------------|-----------------------------|
||----------------------|-----------------------------|
||o---------------------|------------------8----------|
||----------------------|-----------------------------|
||o---------------------|-----------------------------|
||----------------------|-----------------------------|
||----------------------|-----------------------------|


  W                       E   E Q     H
                          |   |
                          x   x

  E  Q.    E  E  E  E    +E   Q    E  H       4x
|---19----20-19-19----|-----------------------||
|------------------19-|-(19)-20---18-19-------||
|---------------------|----------------------o||
|---------------------|-----------------------||
|---------------------|----------------------o||
|---------------------|-----------------------||
|---------------------|-----------------------||
|
|                                       <
|                                       ~~
| W                       H           E Q.    4x
|---------------------|-----------------------||
|---------------------|-----------------------||
|---------------------|-----------------8----o||
|---------------------|-----------------------||
|---------------------|----------------------o||
|---------------------|-----------------------||
|---------------------|-----------------------||


  B5
                                  3/4
  W                   +W           +H.
  |                    |            |
  /                    /            /

  E  Q.    Q.    E    +W            W
|---19----20----17-|-(17)--------|--------||
|------------------|-------------|--------||
|------------------|-------------|--------||
|------------------|-------------|--------||
|------------------|-------------|--------||
|------------------|-------------|--------||
|------------------|-------------|--------||


   Interlude 3
    Slower/Tempo II Q=96
    B5  C5
   4/4
    Gtrs III, IV
    E E S E. E E S E.   E E S E. E E S E.  4x
||----0---0----0---0--|---0---0----0---0---||
||----0---0----0---0--|---0---0----0---0---||
||o-4-4-5-5--4-4-6-6--|-4-4-5-5--4-4-6-6--o||
||--------------------|--------------------||
||o-2---3----2---4----|-2---3----2---4----o||
||--------------------|--------------------||
||--------------------|--------------------||


   Bridge
    E E S E. E E S E.   E E S E. E E S E.  6x
||----0---0----0---0--|---0---0----0---0---||
||----0---0----0---0--|---0---0----0---0---||
||o-4-4-5-5--4-4-6-6--|-4-4-5-5--4-4-6-6--o||
||--------------------|--------------------||
||o-2---3----2---4----|-2---3----2---4----o||
||--------------------|--------------------||
||--------------------|--------------------||


    C5
    E E S E. E E S E.   E E S E. E E S E.     4x
||--------------------|-----------------------||
||--------------------|-----------------------||
||o-------------------|----------------------o||
||--------------------|-----------------------||
||o-3-3------4-4------|-3-3------4-4---------o||
||--3-3------4-4------|-3-3------4-4----------||
||--1-1---0--2-2---0--|-1-1---0--2-2---0------||


 Outro
  Slower/Tempo I Q=48
  Cmaj7
  Gtrs III, IV
  W            +W
  |             |
  /             /

  Gtr I
  W             E  E  E  E  E  E  S  S  S  S
|----------||--------21----------------19-----||-|
|----------||-----19----19----19----19----19--||-|
|----------||o-20----------20----20----------o||-|
|----------||---------------------------------||-|
|----------||o-------------------------------o||-|
|----------||---------------------------------||-|
|----------||---------------------------------||-|


    H.=H
     W                                 W
     E  E  E  E  E  E  S  S  S  S  4x  E  E Q  H
||--------21----------------19-----||---------------*|
||-----19----19----19----19----19--||----19---------*|
||o-20----------20----20----------o||-20------------*|
||---------------------------------||---------------*|
||o-------------------------------o||---------------*|
||---------------------------------||---------------*|
||---------------------------------||---------------*|


Duration Legend
---------------
W - whole; H - half; Q - quarter; E - 8th; S - 16th; T - 32nd; X - 64th; a - acciaccatura
+ - note tied to previous; . - note dotted; .. - note double dotted
Uncapitalized letters represent notes that are staccato (1/2 duration)
Irregular groupings are notated above the duration line
Duration letters will always appear directly above the note/fret number it represents the
duration for.  Duration letters with no fret number below them represent rests.  Multi-
bar rests are notated in the form Wxn, where n is the number of bars to rest for.  Low
melody durations appear below the staff

Tablature Legend
----------------
 h   - hammer-on
 p   - pull-off
 b   - bend
 pb  - pre-bend
 r   - bend release (if no number after the r, then release immediately)
 /\  - slide into or out of (from/to "nowhere")
 s   - legato slide
 S   - shift slide
  - natural harmonic
[n]  - artificial harmonic
n(n) - tapped harmonic
 ~   - vibrato
 tr  - trill
 T   - tap
 TP  - trem. picking
 PM  - palm muting
\n/  - tremolo bar dip; n = amount to dip
 \n  - tremolo bar down
 n/  - tremolo bar up
/n\  - tremolo bar inverted dip
 =   - hold bend; also acts as connecting device for hammers/pulls
 <>  - volume swell (louder/softer)
 x   - on rhythm slash represents muted slash
 o   - on rhythm slash represents single note slash

Misc Legend
-----------
 |  - bar
||  - double bar
||o - repeat start
o|| - repeat end
*|  - double bar (ending)
 :  - bar (freetime)
 $  - Segno
 &  - Coda
Tempo markers -  = BPM(8/16=s8/s16), where s8 = swing 8ths, s16 = swing 16ths


***************************************************************************************
* Generated using Power Tab Editor by Brad Larsen - http://powertab.guitarnetwork.org *
***************************************************************************************
Comments