Korn - Dead Bodies Everywhere Chords & Tabs

 

Dead Bodies Everywhere Chords & Tabs

Korn Chords & Tabs

Version: 5 Type: Tab 0 ratings
1 star 2 stars 3 stars 4 stars 5 stars
comments

Dead Bodies Everywhere Tab

Artist: KoRn
Title: Dead Bodies Everywhere (Intro)
Tabbed by: John Hohengarten (hoey187@hotmail.com)

Enjoy!

e||--------9-------------------7-------||
B||--4--7-----7--4--7--4---7-------7---||
G||------------------------------------||
D||------------------------------------||
A||------------------------------------||
E||------------------------------------||
[ Tab from: http://www.guitartabs.cc/tabs/k/korn/dead_bodies_everywhere_tab_ver_5.html ]
repeat ad infinidum (spelling?)
(ok not really... i'm just too lazy to
listen to the song and find out exactly
how many times they do it)

OR IT CAN BE PLAYED THIS WAY:

e||--------9-------------------7-------||
B||-----7-----7-----7------7-------7---||
G||--8-----------8-----8---------------||
D||------------------------------------||
A||------------------------------------||
E||------------------------------------||
Comments