Korn - Dead Bodies Everywhere Chords & Tabs

 

Dead Bodies Everywhere Chords & Tabs

Korn Chords & Tabs

Version: 3 Type: Tab 0 ratings
1 star 2 stars 3 stars 4 stars 5 stars
comments

Dead Bodies Everywhere Tab

I play a six-string but this is how i fix the problem

tuning: eBGAEA (with heavy strings (heavy bottom) its sounds ok)

> slide
~ let fade out



Intro:
clean

----------7-----------------------5-------
--2---5-------5---2---5---2---5-------5---
------------------------------------------      REPEAT
------------------------------------------
------------------------------------------
------------------------------------------


First riff:
Heavy distortion

------------------------------------------
------------------------------------------
------------------------------------------      REPEAT
----5>1---1-1------5>1---1----------------
----5>1---1-1------5>1---1----------------
----5>1---1-1------5>1---1----------------

(this could sound verrrry messy but I think that this is the right way to play)

Verse riff:
Dist. with a lot of effects!

--------12---13--------12---10------------
---10-------------9-----------------------
------------------------------------------        REPEAT
------------------------------------------
------------------------------------------
------------------------------------------


Special riff:
Dist. with a lot of effects!
[ Tab from: http://www.guitartabs.cc/tabs/k/korn/dead_bodies_everywhere_tab_ver_3.html ]
----17-17-17-18-17-17---------------------
----------------------17--18-17--18--15---
------------------------------------------        REPEAT
------------------------------------------
------------------------------------------
------------------------------------------


After silent part (with scream)

Riff 2:
Heavy Distortion

"you want me to be......."

-------------------------------------------
-------------------------------------------
-------------------------------------------       REPEAT
---5-5-6-6---5-5-7-7---5-5-6-6---5-5-7-7---
---5-5-6-6---5-5-7-7---5-5-6-6---5-5-7-7---
---5-5-6-6---5-5-7-7---5-5-6-6---5-5-7-7---


Riff 3:
Heavy Distortion

"Dead body's everywhere...!!!!"

--------------------------------------------
--------------------------------------------
--------------------------------------------       REPEAT
---1-1-0-0---2-2-0-0---1-1-0-0---2-2-0-0----
---1-1-0-0---2-2-0-0---1-1-0-0---2-2-0-0----
---1-1-0-0---2-2-0-0---1-1-0-0---2-2-0-0----


End:

--------------------------------------------
--------------------------------------------
--------------------------------------------
---0~---------------------------------------
---0~---------------------------------------
---0~---------------------------------------

any comments can be send to kennethtoch@hotmail.com
Comments