Korn - Dead Bodies Everywhere Chords & Tabs

 

Dead Bodies Everywhere Chords & Tabs

Korn Chords & Tabs

Version: 2 Type: Tab 0 ratings
1 star 2 stars 3 stars 4 stars 5 stars
comments

Dead Bodies Everywhere Tab

   
  Korn
  Dead Bodies Everywhere  
 
 TUNING: tune your guitar down one full step (A,D,G,C,F,A,D)

   INTRO: (guitar 1)
    D|----------21----------------------19------|
    A|------19------19------19------19------19--|
    F|--20--------------20------20--------------|
    C|------------------------------------------|
    G|------------------------------------------|
    D|------------------------------------------|
    A|------------------------------------------|

   CHORUS: (guitars 1 and 2)
    D|----------------------------|
    A|----------------------------|
    F|----------------------------|
    C|----------------------------|
    G|----------------------------|
    D|--5\4-2-2--x-5-4--2--2-4----|
    A|--3\2-0-0--x-3-2--0--0-2-0--|
[ Tab from: http://www.guitartabs.cc/tabs/k/korn/dead_bodies_everywhere_tab_ver_2.html ]
   VERSE:
    D|-------------------------------------------|
    A|--12--------/19-----20---/11-----/19---17--|
    F|-------------------------------------------|
    C|-------------------------------------------|
    G|-------------------------------------------|
    D|-------------------------------------------|
    A|-------------------------------------------|

   FILL 1:
    D|----------------|
    A|---12-----12----|
    F|---14^----------|
    C|----------------|
    G|----------------|
    D|----------------|
    A|----------------|

   INTERLUDE: (guitar 1)
    D|--19--20-19-19-----|-----------------18-|-19--20-19-19----|------------|
    A|---------------19--|--20-19--19---------|--------------19-|--20--18-19-|
    F|-------------------|------------17-17---|-----------------|------------|
    C|-------------------|--------------------|-----------------|------------|
    G|-------------------|--------------------|-----------------|------------|
    D|-------------------|--------------------|-----------------|------------|
    A|-------------------|--------------------|-----------------|------------|

   INTERLUDE: (guitar 2)  < = volume swell
    D|-------------------|--------------------|-----------------|------------|
    A|-------------------|--------------------|-----------------|------------|
    F|-------------------|-------------8
Comments