Korn - Dancing Chords & Tabs

 

Dancing Chords & Tabs

Korn Chords & Tabs

Version: 1 Type: Tab 0 ratings
1 star 2 stars 3 stars 4 stars 5 stars
comments

Dancing Tab

Band- Korn
Song- Dancing

----------------------------------------------|-------------------------------|
----------------------------------------------|-------------------------------|
----------------------------------------------|-------------------------------|
-0--0--0--1--1--1--4--4--4--1--1--1--0--0--0--|-------------------------------|
-0--0--0--1--1--1--4--4--4--1--1--1--0--0--0--|-------------------------------|
-0--0--0--1--1--1--4--4--4--1--1--1--0--0--0--|-------------------------------|
               intro

----------------------------------------------|-------------------------------|
----------------------------------------------|-------------------------------|
----------------------------------------------|-------------------------------|
----------------------------------------------|-------------------------------|
---5--5--5--6--6--6--9--9--9--6--6--6--5--5--5|-------------------------------|
---0--0--0--0--0--0--0--0--0--0--0--0--0--0--0|-------------------------------|
               verse
[ Tab from: http://www.guitartabs.cc/tabs/k/korn/dancing_tab.html ]
---------------------------------------------------------------------------|--|
---------------------------------------------------------------------------|--|
-7p0--7p0--7p0--7p0--7p0--7p0--7p0--7p0--7p0---7p0--7p0--7p0--7p0--7p0--7p0|--|
-x----x----x----x----x----x----x----x----x-----x----x----x----x----x----x--|--|
-5----5----5----6----6----6----9----9----9-----6----6----6----5----5----5--|--|
-0----0----0----0----0----0----0----0----0-----0----0----0----0----0----0--|--|
         pre-chorus

------------------------------------------------------------------------------|
------------------------------3p0--3p0--3p0--3---3---3------------------------|
--7p0-7p0-7p0--7p0--7p0--7p0--x----x----x----2---2---2------------------------|
--5---5---5----6----6----6----1----1----1----0---0---0------------------------|
--5---5---5----6----6----6----1----1----1----0---0---0------------------------|
--5---5---5----6----6----6----1----1----1----0---0---0------------------------|
         Chorus

----------------------------------------------------------------|-------------|
------------------------------------3p0--3p0--3p0---------------|-------------|
--7p0-7p0-7p0-----------------------x----x----x-----------------|-------------|
--5---5---5----12p10--12p10--12p10--1----1----1------0-0-0-0-0-0|-------------|
--5---5---5----10-----10-----10-----1----1----1------0-0-0-0-0-0|-------------|
--5---5---5----10-----10-----10-----1----1----1------0-0-0-0-0-0|-------------|
        2nd Part to Chorus

ENJOY!!!!!
Comments