Korn - Daddy Chords & Tabs

 

Daddy Chords & Tabs

Korn Chords & Tabs

Version: 4 Type: Tab 0 ratings
1 star 2 stars 3 stars 4 stars 5 stars
comments

Daddy Tab

   
        GUITAR TABLATURE ONLINE

          URL: www.angelfire.com/bc/tablature
	EMAIL: tablature@canada.com

 ----------------------------------------------------------------------------------------------

	     SONG: Daddy
	     BAND: Korn
	    ALBUM: Korn
   TRANSCRIBED BY: James Albers
	     DATE: Unknown

 ----------------------------------------------------------------------------------------------

	TUNING: tune your guitar down one full step (A,D,G,C,F,A,D)


     INTRO: (Fieldy)
                 
    F|-----------------------|
    C|-----------------------|
    G|-----------------------|
    D|------1^0-------1^0----|
    A|--0-0-----0-0--0----0--|
     
     VERSE:

    D|-------------------|
    A|-----13------12----|
    F|--16------15-------|
    C|-------------------|
    G|-------------------|
    D|-------------------|
    A|-------------------|

     CHORUS:

    D|----------------------------------------|
    A|----------------------------------------|
    F|----------------------------------------|
    C|----------------------------------------|
    G|--4/5-4----4/5-4----4/5-3----3/4-3------|  * this chord is a 1/3/3
    D|--4/5-4----4/5-4----4/5-3----3/4-3------|    chord on the repeat
    A|--2/3-2----2/3-2----2/3-1----1/2-1------|
        *

     FILL 1:

    D|-----------------|
    A|-----------------|
    F|-----------------|
    C|--0--------------| "It's alright"
    G|--4-5------------|
    D|-----------------|
    A|-----------------|

     BRIDGE 1:
[ Tab from: http://www.guitartabs.cc/tabs/k/korn/daddy_tab_ver_4.html ]
    D|----------------13^--------------------|  <-Gtr 1
    A|---------------------------------------|
    F|---------------------------------------|  Gtr 2 plays A & D strings
    C|---------------------------------------|  behind chorus-replace 1/3
    G|---------------------------------------|  with open string triplet.
    D|--2---------2---------2---------2---3--|  Riff fades in after 
    A|--0-0--00-0-0-0-00----0-0--00-0-0--01--|  "I said no one hears me..."

     BRIDGE 2: ("I didn't touch you there")

    D|------------------------|
    A|------------------------|
    F|------------------------|
    C|------------------------|
    G|--4--5-5-4-8----5----8--|   After go to Verse riff
    D|--4--5-5-4-8----5----8--|
    A|--2--3-3-2-6----3----6--|

     FILL 2:  
              .........Regular Chorus.........
    D|----------------------------------------------|
    A|----------------------------------------------|
    F|----------------------------------------------|
    C|----------------------------------------------|
    G|--------4/5-4----4/5-4----4/5-3----3/4-3------|
    D|--------4/5-4----4/5-4----4/5-3----3/4-3------|
    A|--2223332/3-2----2/3-2----2/3-1----1/2-1------|

     FILL 3: (6:27)

    D|-------------------------------------------------------------|
    A|-------------------------------------------------------------|
    F|--(4)--(3)--4--3--4-----------------4--3--4--3-----0---------|
    C|---------------------4--5----4--5---------------4--4~~~~~~~--|
    G|-------------------------------------------------------------|
    D|-------------------------------------------------------------|
    A|-------------------------------------------------------------|

     OUTRO: (before heavy breathing 7:05)

    D|-------------------------------------|  x=G# (or play 16th fret on
    A|-------------------------------------|  the "d" string) 
    F|--4-4-4-4-4-4-------------x-x-x-x-x--|  x is right over neck pickup
    C|-------------------------------------|
    G|-------------------------------------|
    D|-------------------------------------|
    A|-------------------------------------|
        pm.........



Comments