Korn - Counting Chords & Tabs

 

Counting Chords & Tabs

Korn Chords & Tabs

Version: 5 Type: Tab 0 ratings
1 star 2 stars 3 stars 4 stars 5 stars
comments

Counting Tab

band-KoRn
song-counting
tabbed by godsmackthatkid


Intro:
d|-----------------------------|
a|-----------------------------|
F|-----------------------------|
C|-----------------------------|	(Guitar1)
G|-4/5---4/5--2-4-4/5---4/5--2-|
D|-4/5---4/5--2-4-4/5---4/5--2-|
A|-----0--------------0------0-|
       .              .      .    . Palm mute
	
Verse:(Guitar1 & Guitar2)

d|-------------------------------|
a|-------------------------------|
F|-------------------------------|
C|-------------------------------|
G|--4/5--2-4/5-2--4-4/5--2-4/5-2-|
D|--4/5--2-4/5-2--4-4/5--2-4/5-2-|
A|--2/3--0-2/3-0--2-2/3--0-2/3-0-|
         .               .           . Palm mute

Chorus:

d|---------------|
a|---------------|
F|---------------|
C|---------5---4-|	(Guitar1)
G|-4---5---5---4-|
D|-4---5---3---2-|
A|-2---3---------|


d|----------------------|-------------------|
a|----------------------|-------------------|
F|---4\3/4----4-----2---|---4\3/4---4-----2-|
C|----------------------|-----------------2-|	(Guitar2)
G|--------------------2-|-----------------3-|
D|-2-------/3----\1---2-|---------3-------1-|
A|--------------------0-|-2-----------------|

Verse:(Guitar1 & Guitar2)

d|-------------------------------|
a|-------------------------------|
F|-------------------------------|
C|-------------------------------|
G|--4/5--2-4/5-2--4-4/5--2-4/5-2-|
D|--4/5--2-4/5-2--4-4/5--2-4/5-2-|
A|--2/3--0-2/3-0--2-2/3--0-2/3-0-|
         .               .           . Palm mute

Chorus:

d|---------------|
a|---------------|
F|---------------|
C|---------5---4-|	(Guitar1)
G|-4---5---5---4-|
D|-4---5---3---2-|
A|-2---3---------|

[ Tab from: http://www.guitartabs.cc/tabs/k/korn/counting_tab_ver_5.html ]
d|----------------------|-------------------|
a|----------------------|-------------------|
F|---4\3/4----4-----2---|---4\3/4---4-----2-|
C|----------------------|-----------------2-|	(Guitar2)
G|--------------------2-|-----------------3-|
D|-2-------/3----\1---2-|---------3-------1-|
A|--------------------0-|-2-----------------|

Bridge:

d|----11----12---11-------8--------------|
a|------------------9-----------9----9---|
F|-------------------------------------8-|
C|-11----11---11------10-----10---10-----|	(Guitar1)
G|---------------------------------------|
D|---------------------------------------|
A|---------------------------------------|
 
d|---------------------------------------|
a|---------------------------------------|
F|---------------------------------------|
C|---------------------------------------|	(Guitar2)
G|---------------------------------------|
D|---------------------------------------|
A|-2~~~~~~~~~~~~~~~~~~~1~~~~~~~~~~~~~~~~~|

Intro again:
d|-----------------------------|
a|-----------------------------|
F|-----------------------------|
C|-----------------------------|	(Guitar1)
G|-4/5---4/5--2-4-4/5---4/5--2-|
D|-4/5---4/5--2-4-4/5---4/5--2-|
A|-----0--------------0------0-|
       .              .      .    . Palm mute

Verse:(Guitar1 & Guitar2)

d|-------------------------------|
a|-------------------------------|
F|-------------------------------|
C|-------------------------------|
G|--4/5--2-4/5-2--4-4/5--2-4/5-2-|
D|--4/5--2-4/5-2--4-4/5--2-4/5-2-|
A|--2/3--0-2/3-0--2-2/3--0-2/3-0-|
         .               .           . Palm mute


Chorus:

d|---------------|
a|---------------|
F|---------------|
C|---------5---4-|	(Guitar1)
G|-4---5---5---4-|
D|-4---5---3---2-|
A|-2---3---------|


d|----------------------|-------------------|
a|----------------------|-------------------|
F|---4\3/4----4-----2---|---4\3/4---4-----2-|
C|----------------------|-----------------2-|	(Guitar2)
G|--------------------2-|-----------------3-|
D|-2-------/3----\1---2-|---------3-------1-|
A|--------------------0-|-2-----------------|
Comments