Korn - Counting Chords & Tabs

 

Counting Chords & Tabs

Korn Chords & Tabs

Version: 4 Type: Tab 0 ratings
1 star 2 stars 3 stars 4 stars 5 stars
comments

Counting Tab

   
Korn - Counting
Submitted By: Aaron
EMail: praudugie@aol.com


you know the deal, if you got a 6 string guitar you tune town to this:
A D G F A D, now you play this:


INTRO (CLEAN)

G|-4-5---4-5---4-4-5---4-5---|
D|-4-5---4-5---4-4-5---4-5---| x4
A|-2h3-0-2h3-0-2-2h3-0-2h3-0-|

VERSE (DISTORTION)

G|-4-5---4-5---4-4-5---4-5---|
D|-4-5---4-5---4-4-5---4-5---| x8
A|-2h3-0-2h3-0-2-2h3-0-2h3-0-|
      PM    PM             

CHORUS (DISTORTION) 

D|--0---0----------0---0--------|
A|--0---0---3------0---0----3---|
F|------------------------------|
G|------------------------------|  X4
D|-2--3---1----------3----1-----|
A|-----------0---2------------0-|

BEFORE VERSE HIT THIS AND LET IT RING!

D|-0-----
A|-3-----
F|-0-----

THEN VERSE AGAIN AND CHORUS THEN GO AHEAD AND HAVE
FUN WITH EFFECTS ON THE BRIDGE THEN THAT'S IT!!
AND QUESTIONS OR COMMENTS CONTACT ME AT     PRAUDUGIE@AOL.COM
OR IM ME ON AOL AT SCREEN NAME       PRAUDUGIE

AND REMEMBER KORN IS UNDERRATED AND HATED BUT ALWAYS HARD AND CREATIVE.
===========Counting by KoRn
Guitarist: Munky + Head
Album: Issues
Dif.: 7
Tabbed by TWIGGy5

NOTE: Tune down full step (A D G C F A D)

Intro/Bridge P2 (Gtr. 1) (clean)
G|-4/5----4/5------4/5----4/5----|-%-|-%-|-4/5----4/5------4/5-------|
D|-4/5----4/5------4/5----4/5----|-%-|-%-|-4/5----4/5------4/5-------|
A|-2/3--0-2/3--0-2-2/3--0-2/3--0-|-%-|-%-|-2/3--0-2/3--0-2-2/3-------|
       PM     PM       PM                      PM     PM

Intro P2/Verse/Bridge P3 (w/ heavy dist.)
G|-4/5----4/5------4/5----4/5----|-%-|-%-|-4/5----4/5------4/5-------|
D|-4/5----4/5------4/5----4/5----|-%-|-%-|-4/5----4/5------4/5-------|
A|-2/3--0-2/3--0-2-2/3--0-2/3--0-|-%-|-%-|-2/3--0-2/3--0-2-2/3-------|
       PM     PM       PM                      PM     PM

Chorus (Both Guitars) ("So I'm saying nothing....")
A|------0---------0------------0-------------------0----------0-|
F|------3---------4------------2-------------------3----------4-|
C|------4---------4------------2-------------------4----------4-|
D|-2--------3-------------1-----------------------------3-------|
A|----------------------------------0----------2----------------|

Chorus (Both Guitars) (cont.)
A|---------0-------------|----------------------------|
F|---------2-------------|----------------------------|
C|---------2-------------|----------------------------|
D|----1------------------|----------------------------|
A|--------------------0--|-then-do-first-part-of-riff-|
[ Tab from: http://www.guitartabs.cc/tabs/k/korn/counting_tab_ver_4.html ]
Chorus (Both Guitars) (cont.)
A|---0-------------|
F|---2-------------|
C|---2-------------|
G|-----------------|
D|---1-------------|

Bridge (Gtr. 1) (clean)
D|-----11----------12---11----------8------------------------|
A|--------------------------9-----------------------9---9----|
F|---------------------------------------------------------8-|
C|-11--------11----------------10--------------10------------|

Bridge (Gtr. 2) (w/dist.)
F|-6--------------------6-------------------------------------|
C|-6--------------------6----------------------6--------------|
G|-4--------------------4----------------------6--------------|
D|---------------------------------------------4--------------|

Fill 1 (Gtr. 2) (clean) (2nd time Jon says "They give the money..")
D|---------11---------------12-------11---------------8-------------------------------|
A|---------------------------------------9-----------------------------9--------------|
C|-11-----------------11---------------------10--------------10-----------------------|

Song Structure: -
Intro (Gtr. 1)
Bass Fade In Shyt
Intro P2 (Both Guitars)
Verse (Both Guitars) ("I can bet to face....")
Chorus (Both Guitars) ("So I'm saying......")
Verse (Both Guitars) ("You just see me....")
Chorus (Both Guitars) (Let last note ring out long and then fade out)
Bridge (Gtr. 1)/Bridge (Gtr. 2) (w/o lyrics)
Bridge (Gtr. 1)/Bridge (Gtr. 2) (It's funny how it got...")
Fill 1 (Gtr. 1)/Bridge (Gtr. 2)
Bridge P2 (Gtr. 1)
Bridge P3 (Both Guitars)
Chorus (Both Guitars)
Let last not ring out

Alright there ya go..... Nice song fairly heavy.... Any comments, corrections
or suggestions email me at toxic345x@yahoo.ca
===========Counting - Guitar Tab

Transcribed By: Sam Sensabaugh (BeatingMeDown@hotmail.com)

Tuned Down One Half Whole Step (DGCFAd)

(Intro and Verse) 

(Guitars 1 and 2)
d ||----------------------||---------------------|
A ||----------------------||---------------------|
F ||----------------------||---------------------|
C ||-6--7--6--6--7--5--5--||-6--7--6--6--7--5----|
G ||-4--5--4--4--5--3--3--||-4--5--4--4--5--3----|
D ||----------------------||---------------------|
(note:Intro is played clean..then the distortion kicks in.)


(Chorus)

(Guitars 1 and 2)
d ||------------------------|
A ||------------------------|
F ||--------5--4------------|
C ||--4--5--5--4------------|
G ||--4--5--3--2------------|
D ||--2--3------------------|(Distortion)


(Part Where Jon Sings..."It's funny how we've just started...")

d ||--------11--12--11--------8--8--8--|
A ||-----------------------------------|
F ||--8--6--------------6--5-----------|
C ||-----------------------------------|
G ||-----------------------------------|
D ||-----------------------------------|
Comments