Korn - Counting Chords & Tabs

 

Counting Chords & Tabs

Korn Chords & Tabs

Version: 2 Type: Tab 0 ratings
1 star 2 stars 3 stars 4 stars 5 stars
comments

Counting Tab

				"COUNTING"
				    by
				   KoRn
			     as tabbed by JN

INTRO/VERSE
x|-----------------------|
x|-----------------------|
x|-----------------------|
x|-6/7-x-7-4-x-5/7-x-7-4-|
x|-6/7-x-7-4-x-5/7-x-7-4-|
x|-4/5-x-5-2-x-3/5-x-5-2-|
[ Tab from: http://www.guitartabs.cc/tabs/k/korn/counting_tab_ver_2.html ]
CHORES
x|-5-5-7-7-9--9--9--3--3-|
x|-7-7-9-9-11-11-11-5--5-|
x|-7-7-9-9-11-11-11-5--5-|
x|-7-7-9-9-11-11-11-5--5-|
x|-5-5-7-7-9--9--9--3--3-|
x|-5-5-7-7-9--9--9--3--3-|

INTERLUDE (this is a bass riff, there isnt any guitar here, but its ok if you dont have someone on bass)
x|-----------------|
x|-----------------|
x|-----------------|
x|-----------------|
x|-----------------|
x|-5-6-7-6-5-6-9-8-|
Comments