Korn - Counting On Me Chords & Tabs

 

Counting On Me Chords & Tabs

Korn Chords & Tabs

Version: 5 Type: Tab

Counting On Me Tab

   
KoRn - Counting On Me - Take A Look In The Mirror

Tabbed by Elvisz (elvisz@kornkids.com)
Tuning : 7 String Tuned Low to High (A D G C F A D)

Vocal: Jonathan Houseman Davis 'Hiv'
Guitar1: Brian Phillip Welch 'Head'
Guitar2: James Randal Shaffer 'Munky'
Bass: Reginald Arvizu 'Fieldy'
Drums: David Silveria

Intro:(Guitar1)
d|------------------------|---------------------|
a|------------------------|---------------------|
F|------------------------|---------------------|
C|------------------------|---------------------|
G|------------------------|---------------------|
D|-1-XX-1-XX-1-XX-1x-1-3^-|-1-XX-1-XX-1-XX-1-XX-|
A|------------------------|---------------------|

Pre-verse:(Guitar1 & Guitar2)
d|-------------------------|
a|-------------------------|
F|-------------------------|
C|-------------------------|
G|---88---88---88--8-------|
D|---------------------10^-|
A|-6----6----6----6--6- 8^-|

Verse:
d|------------------------|
a|------------------------|
F|------------------------|
C|------------------------|	(Guitar1)
G|------------------------|
D|-1-XX-1-XX-1-XX-1x-1-3^-|
A|------------------------|

d|---------------------|
a|---------------------|
F|-4^---b4-4^--2--0----|
C|-------------------3~|	(Guitar2)
G|---------------------|
D|---------------------|
A|---------------------|

Pre-verse:(Guitar1 & Guitar2)
d|-------------------------|
a|-------------------------|
F|-------------------------|
C|-------------------------|
G|---88---88---88--8-------|
D|---------------------10^-|
A|-6----6----6----6--6- 8^-|

Chorus:(Guitar1 & Guitar2)
d|---------------------------|
a|---------------------------|
F|---------------------------|
C|-3~~~6~-------6~~~8~----4~~|
G|-3~~~6~4~~~~~~6~~~8~6~~~4~~|
D|-1~~~4~4~~~~~~4~~~6~6~~~2~~|
A|-------2~~~~~~------4~~~---|

Verse:
d|------------------------|
a|------------------------|
F|------------------------|
C|------------------------|	(Guitar1)
G|------------------------|
D|-1-XX-1-XX-1-XX-1x-1-3^-|
A|------------------------|

d|---------------------|
a|---------------------|
F|-4^---b4-4^--2--0----|
C|-------------------3~|	(Guitar2)
G|---------------------|
D|---------------------|
A|---------------------|

Pre-verse:(Guitar1 & Guitar2)
d|-------------------------|
a|-------------------------|
F|-------------------------|
C|-------------------------|
G|---88---88---88--8-------|
D|---------------------10^-|
A|-6----6----6----6--6- 8^-|
[ Tab from: http://www.guitartabs.cc/tabs/k/korn/counting_on_me_tab_ver_5.html ]
Chorus:(Guitar1 & Guitar2)
d|---------------------------|
a|---------------------------|
F|---------------------------|
C|-3~~~6~-------6~~~8~----4~~|
G|-3~~~6~4~~~~~~6~~~8~6~~~4~~|
D|-1~~~4~4~~~~~~4~~~6~6~~~2~~|
A|-------2~~~~~~------4~~~---|

Bridge1:
d|------------------|------------------|
a|------------------|------------------|
F|-------------7779-|-------------7776-|
C|-------------7779-|-------------7776-|	(Guitar1)
G|------------------|------------------|
D|-1-----1--1-------|-1-----1--1-------|
A|------------------|------------------|

d|---1-3-------1//3-|---1-3-------1//3-|
a|-------1~---------|-------1~---------|
F|------------------|------------------|
C|------------------|------------------|	(Guitar2)
G|------------------|------------------|
D|-1--------1-------|-1---------1------|
A|------------------|------------------|

Bridge2:
d|-----------------------------|
a|-----------------------------|
F|-----------------------------|
C|-3~~~2~~~--------------------|	(Guitar2)
G|-3~~~2~~~33-333433-33-333433-|
D|-1~~~0~~~33-333433-33-333433-|
A|---------11-111211-11-111211-|

d|-----------------------------|
a|-----------------------------|
F|-5~~~4~~~--------------------|
C|-x~~~x~~~--------------------|	(Guitar1)
G|-3~~~2~~~33-333433-33-333433-|
D|---------33-333433-33-333433-|
A|---------11-111211-11-111211-|

Fill1:
d|---------|
a|---------|
F|---------|
C|-3~~~2~~~|	(Guitar2)
G|-3~~~2~~~|
D|-1~~~0~~~|
A|---------|

d|---------|
a|---------|
F|-5~~~4~~~|
C|-x~~~x~~~|	(Guitar1)
G|-3~~~2~~~|
D|---------|
A|---------|

Bridge3:(Guitar1 & Guitar2 real fast)
d|-----------|
a|-----------|
F|-----------|
C|-----------|
G|-3-3433343-|
D|-3-3433343-|
A|-1-1211121-|

Fill2:
d|---------|
a|---------|
F|---------|
C|-3~~~2~~~|	(Guitar2)
G|-3~~~2~~~|
D|-1~~~0~~~|
A|---------|

d|---------|
a|---------|
F|-5~~~4~~~|
C|-x~~~x~~~|	(Guitar1)
G|-3~~~2~~~|
D|---------|
A|---------|

Pre-verse:(Guitar1 & Guitar2)
d|-------------------------|
a|-------------------------|
F|-------------------------|
C|-------------------------|
G|---88---88---88--8-------|
D|---------------------10^-|
A|-6----6----6----6--6- 8^-|

Chorus:(Guitar1 & Guitar2)
d|---------------------------|
a|---------------------------|
F|---------------------------|
C|-3~~~6~-------6~~~8~----4~~|
G|-3~~~6~4~~~~~~6~~~8~6~~~4~~|
D|-1~~~4~4~~~~~~4~~~6~6~~~2~~|
A|-------2~~~~~~------4~~~---|

Outro:(Guitar2)
d|-16--16--15--15--16--16--15~---|-16--16--15--15--16--16---|
a|-18--18--16--16--18--18--16~16~|-18--18--16--16--18--1816~|
F|---17--17--17--17--17--17---17~|---17--17--17--17--17--17~|
C|-------------------------------|--------------------------|
G|-------------------------------|--------------------------|
D|-------------------------------|--------------------------|
A|-------------------------------|--------------------------|