Korn - Counting On Me Chords & Tabs

 

Counting On Me Chords & Tabs

Korn Chords & Tabs

Version: 4 Type: Tab 0 ratings
1 star 2 stars 3 stars 4 stars 5 stars
comments

Counting On Me Tab

Band- Korn
Song- Counting On Me

Intro (1 and 2)/Verse Gtr.1/Pre Chorus

d|---------------------------------------------------------|
a|---------------------------------------------------------|
F|---------------------------------------------------------|
C|---------------------------------------------------------|
G|-----8-8------8-8------8-8------8------------------------|
D|---------------------------------------------------------|
A|---6--------6--------6--------6----6--8^-----------------|

Verse (Gtr. 2)x2
d|---------------------|
a|---------------------|
F|---------------------|
C|9~/10-9~-7-7-\3------|
G|---------------------|
D|---------------------|
A|---------------------|

Chorus
d|--------------------|
a|--------------------|
F|--------------------|
C|3---5------6---8----|
G|3---5--4---6---8-6--|
D|1---3--4---4---6-6--|
A|-------2---------4--|

Bridge (Gtr.1)
[ Tab from: http://www.guitartabs.cc/tabs/k/korn/counting_on_me_tab_ver_4.html ]
d|----------------------------|
a|----------------------------|
F|-------/12---------/13------|
C|----------------------------|
G|----------------------------|
D|---x-8---------x-8----------|
A|----------------------------|

Bridge (Gtr.2) x3   then
d|-----------------|------------|   
a|-----------------|------------|
F|13-13-13-14------|13-13-13-12-|
C|11-11-11-12------|11-11-11-10-|
G|11-11-11-12------|11-11-11-10-|
D|-----------------|------------|
A|-----------------|------------|

Bridge 2 (*=last time only)
d|-------------------------------------------------------------------|
a|-------------------------------------------------------------------|
F|-------------------------------------------------------------------|
C|-------------------------------------------------------------------|
G|---8---7---3-3---3---3-3-3---3-3------3--3-3-3-3--4-3---8---7------|
D|---8---7---3-3---3---3-3-3---3-3------3--3-3-3-3--4-3---8---7------|
A|---6---5---1-1---1---1-1-1---1-1------1--1-1-1-1--2-1---6---5------|
              			                          *   *

ENJOY!!!!!!
Comments