Korn - Clown Chords & Tabs

 

Clown Chords & Tabs

Korn Chords & Tabs

Version: 3 Type: Tab 0 ratings
1 star 2 stars 3 stars 4 stars 5 stars
comments

Clown Tab

Author/Artist: Korn
Title: Clown
Album: Korn
Transcribed by: Rob K
Email: korncrypt@hotmail.com
visit my webpage drive.to/euphoria

Tuning: 1 step down: low to high : D G C F A D

Intro:
------------|
--------0---|
--------4b5-| x4
------------|
-2-2-2------|
-2-2-2------|
                 last time its a gradual bend  

-------------------------------|----
-------------------------------|----
-------------------------------|----
-------------------------------|-x5-
-5/6\5-4/5\4-5/6\5-4/5\4-5/6\4-|----
-5/6\5-4/5\4-5/6\5-4/5\4-5/6\4-|----

-----------------------|----
-----------------------|----
-----------------------|-x4-
-----------------------|----
-5/6-4/5-5/6-4/5-5/6\4-|----
-5/6-4/5-5/6-4/5-5/6\4-|----

Verse:
Guitar 1
----------------------------------------------
-16-16-16----------16-16-16----------------15-
----------19-19-19----------19-19-19-19-19-18-
----------------------------------------------
----------------------------------------------
----------------------------------------------
 Guitar 2                            
----------------------------------------------
----------------------------------------------
----------------------------------------------
----------------------------------------------
--5/6\5--4/5\4--5/6\5--4/5\4--5/6\4-----------
----------------------------------------------
[ Tab from: http://www.guitartabs.cc/tabs/k/korn/clown_tab_ver_3.html ]
Chorus:
--------------------------------|-----
--------------------------------|-----
--------------------------------|-----
--------------------------------|-x-8-
--2-2--2-2--2-2-6\5-5-5\4-4-4\3-|-----
--2-2--2-2--2-2-6\5-5-5\4-4-4\3-|-----

play this before last verse:
-------------|
---------0---|
---------4b5-| x3
-------------|
--2-2-2------|
--2-2-2------|

------------
------------
------------
------------  Right before bridge
--2-2-2-----
--2-2-2-----

Bridge    :
--------8b-----8b-|----|-------8b---------|
------------------|----|------------------|
--------5b-----5b-|----|-------5b---------|
------------------|-x2-|------------------|
-2-2-2-----222----|----|-2-2-2----222-3-4-|
-2-2-2-----222----|----|-2-2-2----222-3-4-|
   ...     ...             ...    ...      

Interlude:
--------------------------------|----|-----------------------|----
--------------------------------|----|-----------------------|----
--------------------------------|----|-----------------------|----
--------------------------------|-x4-|-----------------------|-x4-
--5/6\5-4/5\4-5/6\5-4/5\4-5/6\4-|----|-5/6-4/5-5/6-4/5-5/6\4-|----
--5/6\5-4/5\4-5/6\5-4/5\4-5/6\4-|----|-5/6-4/5-5/6-4/5-5/6\4-|----

Outro
--------|------
--------|------
--------|------
--------|-x8---
--2-2-2-|------
--2-2-2-|------
  .....  theres another guitar playing something, not sure what               

Comments